Cifras e Tablaturas
Steve Gaines

Steve Gaines

Alone In The Multitude

Cifras Cancelar Versão de Impressão
cifras

Steve Gaines - Alone In The Multitude

fixar na tela  
Exibindo: vídeo-aula ver clipes redimensionar
  
Intro 
e|-----------------------------------------|---------------------------------------------------| 
B|-----------------------------------------|---------------------------------------------------| 
G|-7/5-5-5---------------------------------|-7-5---------5-5-----------------------------------| 
D|---------5~--5-3-3-3---------------------|-----(5)-(5)-----5~--5-x-x-3-3---------------------| 
A|---------------------6/3-----------3-4-5-|-------------------------------6/3-----------3-4-5-| 
E|-------------------------0-1-2-3-x-------|-----------------------------------0-1-2-3-x-------| 

*At the ending A chord, a second guitar comes in at the same time and slides up to the 17th fret on b string 
and briefly slides in and out of the 14th fret on the g string with a little vibrato. 
   
                                                                         *If you are playing with one guitar,  
   F    D                        F    D  F  G   A                         you can play that last A chord like: 
e|-13/--\5-------------12/-------13/--5--1--3---5-----------------------|           E|---| 
B|-13/--\7-----------------\14~--13/--7--1--3---5-*(/17)----------------|           B|/17| 
G|-14/--\7--5---5-5b-------------14/--7--2--4---6---------/14~-14~-14~\-|           G|-14| 
D|-15/--\7----7------7-----------15/--7--3--5---7-----------------------|           D|-14| 
A|-15/--\5-----------------------15/--5--3--5---7-----------------------|           A|-14| 
E|-13/---------------------------13/-----1--3---5-----------------------|           E|---| 
   F    D                       F    D  F  G 
e|-13/--5-----------------------13/--5--1--3-(hold)--\--| 
B|-13/--7-----------10----10~---13/--7--1--3---------\--| 
G|-14/--7--5---5-5b----/8-------14/--7--2--4---------\--| 
D|-15/--7----7------------------15/--7--3--5---------\--| 
A|-15/--5-----------------------15/--5--3--5---------\--| 
E|-13/--------------------------13/-----1--3---------\--| 


verse 1 
    A        #F     D   x3     C       #F         D   x1 
e|---------------------|    |------------------------| 
B|---2-(2)---------/7~-|    |---8-----------(3)--/7~-| 
G|---2-(2)---------/7~-|    |-9------------------/7~-| 
D|---2-(2)---4b(~)-/7~-|    |-----10/--4b(~)-----/7~-| 
A|-0-------0-------/5~-|    |--------------------/5~-| 
E|---------------------|    |------------------------| 

For the first verse I just kind of do a general A chord bounce to F# and slide into the D chord and repeat. 
     A       #F     D   x8 
e|---------------------| 
B|---2-(2)---------/7~-| 
G|---2-(2)---------/7~-| 
D|---2-(2)---4b(~)-/7~-| 
A|-0-------0-------/5~-| 
E|---------------------| 

Chorus 1 
You can use the chords like in the intro if you want.  I play it this way on one guitar because it accentuates 
the notes the slide guitar plays a little better. 
   F    D            A             F    D   F  G  A 
e|------5~-----------5-----------------/5~--1--3--5-| 
B|-13/--7~-----------5--15/13b(~)-/13\-/7~--1--3--5-| 
G|-10/--7~--5---5-5b-6------------/14\-/7~--2--4--6-| 
D|-10/--7~----7------7------------/15\-/7~--3--5--7-| 
A|------5~-----------7------------/15\-/5~--3--5--7-| 
E|-------------------5----------------------1--3--5-| 

*Accentuate the the g string notes one the last F and G chords 
   F   D                      F      G 
e|-13/-5~--------------------------------| 
B|-13/-7~-------------/10~\--------------| 
G|-14/-7~--5---5-5b----------/14~---/16~-| 
D|-15/-7~----7------7 --------15-----17--| 
A|-15/-5~---------------------15-----17--| 
E|-13/------------------------13-----15--| 

verse 2 
   A         #F      D   x2  A        #F     D   x2 
e|----------------------|  |--------------------| 
B|-----2------------/7~-|  |-----x----------/7~-| 
G|-----2------------/7~-|  |-----x----------/7~-| 
D|---2-------/4b(~)-/7~-|  |---2-----/4b(~)-/7~-| 
A|-0-------0--------/5~-|  |-0-----0--------/5~-| 
E|----------------------|  |--------------------| 

     A      #F      D   x8 
e|---------------------| 
B|---2-(2)---------/7~-| 
G|---2-(2)---------/7~-| 
D|---2-(2)---4b(~)-/7~-| 
A|-0-------0-------/5~-| 
E|---------------------| 

Chorus 2 
   F    D                          F    D   F  G  A 
e|-13/--5~------------------------------5~--1--3--5-| 
B|-13/--7~----------------10-10~---13\--7~--1--3--5-| 
G|-14/--7~--5---5-5b---/8----------10\--7~--2--4--6-| 
D|-15/--7~----7------7-------------10\--7~--3--5--7-| 
A|-15/--5~-------------------------10\--5~--3--5--7-| 
E|-13/--------------------------------------1--3--5-| 

   F   D                      F      G 
e|-13/-5~------------------------------------------| 
B|-13/-7~-------------/10~\-------------------15~--| 
G|-14/-7~--5---5-5b----------/14~----16-----16-----| 
D|-15/-7~----7------7 --------15-----17---17-------| 
A|-15/-5~---------------------15-----17------------| 
E|-13/------------------------13-----15------------| 

Guitar plays the first verse riff 3x before the solo starts and continues to play throughout the solo. 

Solo 1 
e|-------------------------------------/15~--12\-------------------------| 
B|-----17----17----17----17----15/17~--/15~------/14-----------------10~-| 
G|-/17----17----17----17----17-15/17~----------------12-14~--------------| 
D|----------------------------------------------------------12-10/14-----| 
A|-----------------------------------------------------------------------| 
E|-----------------------------------------------------------------------| 

e|-----------------------------------------------12------------------------------| 
B|-13b-11\10----/14-------/14---------/14----/14----/14----/14-------------------| 
G|-----------10-----14-14-----14-(14)-----14-----------(12)----14p(12)p(10)-/14~-| 
D|-------------------------------------------------------------------------------| 
A|-------------------------------------------------------------------------------| 
E|-------------------------------------------------------------------------------| 

e|----------------------------------------------------------| 
B|----------------------------------------------------------| 
G|----14-------14-------14-------17b--14-------14~----------| 
D|-15----17p15----17p15----17p15---------17p15-----\12-10b--| 
A|----------------------------------------------------------| 
E|----------------------------------------------------------| 

e|----------------------------------------------------------------5-------------| 
B|-2--2-2---/5------------------------------------------5-3---------7--7--------| 
G|-2--2-2---/5-/7~--7/5---5b--------2-------2--2-2--2-2-----/6-2----------7-5---| 
D|-2--2-2-2-------------7----7-5/7~---2-2/5-----------------------------------7-| 
A|------------------------------------------------------------------------------| 
E|------------------------------------------------------------------------------| 

e|------------------------------------------| 
B|------------------------------------------| 
G|-5b5pb------------5b--2-5p2-2-(5p2)-(2)---| 
D|-------7--5-7-x-7-------------------------| 
A|------------------------------------------| 
E|------------------------------------------| 

e|-/15~--15/17-/15------------15~--------------------------12-/17-17~--------12-/17-/17~-17/15-| 
B|-----------------16/13b14~------17/14-----------------12----------------12-------------------| 
G|--------------------------------------14-12-x-14~-/14---------------/14----------------------| 
D|---------------------------------------------------------------------------------------------| 
A|---------------------------------------------------------------------------------------------| 
E|---------------------------------------------------------------------------------------------| 

e|-15-15~----15~--------15~---15~---15~---15~---15~---15~---15~---15~---15~---15~---15~---15~----| 
B|--------17-----17-17~----17~---17~---17~---17~---17~---17~---17~---17~---17~---17~---17~---17~-| 
G|-----------------------------------------------------------------------------------------------| 
D|-----------------------------------------------------------------------------------------------| 
A|-----------------------------------------------------------------------------------------------| 
E|-----------------------------------------------------------------------------------------------| 

e|------------------------------------| 
B|-17/15-12/14~-14\--2--2/7--/5----7~-| 
G|--------------x---------------6-----| 
D|------------------------------------| 
A|------------------------------------| 
E|------------------------------------| 

verse 3 
     A  #F   C    A #F   D  x2 
e|-------------------------| 
B|---2------(5)---2-----/7-| 
G|---2------(5)---2-----/7-| 
D|---2---4--(5)---2--4--/7-| 
A|-0---0--------0---0------| 
E|-------------------------| 

*On last D chord, play and then quickly the mute strings. 

     A  #F  C x2     A  #F   D                      x1 
e|------------|  |---------------|-----------------| 
B|---2-----/5-|  |---2-----*/7---|-----------------| 
G|---2-----/5-|  |---2------/7---|-----------------| 
D|---2--4--/5-|  |---2---4--/7---|-----------0-1-3-| 
A|-0---0------|  |-0---0---------|-----0-1-3-------| 
E|------------|  |---------------|-1-3-------------| 

Chorus 3 
e|--------------------------------------------------| 
B|-10\--7~----------------------10\--7~---------/17-| 
G|-10\--7~--5---5-5b-------14~--10\--7~----------14-| 
D|-10\--7~----7------7--14------10\--7~--10--12--14-| 
A|---------------------------------------8---10-----| 
E|--------------------------------------------------| 

e|-------------------------------------------------------| 
B|----10\--7~-----------------10~\--/13---12--(12)-------| 
G|----10\--7~--5---5-5b----/8--------10---12--(12)-------| 
D|-7--10\--7~----7------7------------10---12--(12)-------| 
A|----8\---5~--------------------------------------------| 
E|-------------------------------------------------------| 

verse 4 
   A         #F      D   x2  A        #F     D   x2 
e|----------------------|  |--------------------| 
B|-----2------------/7~-|  |-----x----------/7~-| 
G|-----2------------/7~-|  |-----x----------/7~-| 
D|---2-------/4b(~)-/7~-|  |---2-----/4b(~)-/7~-| 
A|-0-------0--------/5~-|  |-0-----0--------/5~-| 
E|----------------------|  |--------------------| 

Solo 2 
e|------------------------------------------------------------2---------------| 
B|---------------------------------------------5--------2---------------------| 
G|-2~--2h4b5r4-------2----------------2--2-4b5---4pb5r4---4b5---4pb5r4-2-4-2~- 
D|-------------2-2/4---4-2--2-2-2-2h4---4-------------------------------------| 
A|----------------------------------------------------------------------------| 
E|----------------------------------------------------------------------------| 

e|-----------------------------------------------------------------------------5-5-5---8/10~--| 
B|---------------------------------------------------3-2--------1-3-3/5-5--5/7-------7--------| 
G|-2-4-4pb5r4-2---2---2-2--2--------2---5/7/5-----2------4-2-2--------------------------------| 
D|--------------4---4--------4--2/4---2-------2/4---------------------------------------------| 
A|--------------------------------------------------------------------------------------------| 
E|--------------------------------------------------------------------------------------------| 

e|-12-9/5-5-8-8/10--10/8------5-5--8/10-5-8-5------------5--------5--8/9--9\8----8-| 
B|-----------------------5--7-----------------7-5-5--5-7---8~-8-5-------------10---| 
G|---------------------------------------------------------------------------------| 
D|---------------------------------------------------------------------------------| 
A|---------------------------------------------------------------------------------| 
E|---------------------------------------------------------------------------------| 

e|-/15--15/13-13---/15--\--11\9----------------| 
B|------------------------------10---------9-9-| 
G|---------------------------------9--9h11-----| 
D|---------------------------------------------| 
A|---------------------------------------------| 
E|---------------------------------------------| 

e|------12-----------12-------12--------------------15-------15--------------| 
B|13b14-13pb14r13b14----13b14----13pb14r13-10-13b14----13pb4----13pb14r13-10-| 
G|---------------------------------------------------------------------------| 
D|---------------------------------------------------------------------------| 
A|---------------------------------------------------------------------------| 
E|---------------------------------------------------------------------------| 

e|-13h15--13--------13-------13----13----13-----13/15-13/15~-----------15-| 
B|-----------15--------15-------15----15----15---------------13--15/17----| 
G|--------------15--------15----------------------------------------------| 
D|------------------------------------------------------------------------| 
A|------------------------------------------------------------------------| 
E|------------------------------------------------------------------------| 

e|--------------14b15--14/12~-12~----12-14-17/19--17----------------------| 
B|--------------------------------14------------------18b19br18-----------| 
G|-------14-14---------------------------------------------------18\16----| 
D|-14h17---------------------------------------------------------------14-| 
A|------------------------------------------------------------------------| 
E|------------------------------------------------------------------------| 

e|-----------------------------------------------------------------------------| 
B|-----------------------------------------------------------------------------| 
G|---------------------------19-------------------------------------/19--19/18~| 
D|-------14--------14-16b18-----16pb18r16-16pb18r16-------14-------------------| 
A|-14-16----16-14-----------------------------------14-16----16-14-------------| 
E|-----------------------------------------------------------------------------| 

e|-------18--21/20----21/20----21/20----21/20----21/20----21/20----21/20----21/20-18-21/20-----------18--| 
B|-18/20-----------18-------18-------18-------18-------18-------18-------18----------------(18)-(20)-----| 
G|-------------------------------------------------------------------------------------------------------| 
D|-------------------------------------------------------------------------------------------------------| 
A|-------------------------------------------------------------------------------------------------------| 
E|-------------------------------------------------------------------------------------------------------| 

e|-18----18-16/18~--------------------------------------18-| 
B|----20-----------(21br)-18-------------------------------| 
G|---------------------------19-18~-16-------16-18--20b----| 
D|-------------------------------------17-17---------------| 
A|---------------------------------------------------------| 
E|---------------------------------------------------------| 

*At this point of the solo, the backing guitar is playing a rythm something like below while the slide  
guitar breaks for 8 measures. 
   A                D  x8 
e|--------------------| 
B|-2-2---2--2---2--/7-| 
G|-2-2---2--2---2--/7-| 
D|-2---2------2----/7-| 
A|--------------------| 
E|--------------------| 

Then slide comes back in. 
                               *After the fourth measure, let the notes on the 7th frets ring out a measure. 
                             x1                                x3 
e|-/12-(12)-----------------|  |-/12-12-12-12-12-12-12-12-----| 
B|-/14-14-14-14--14-14\--/7-|  |-/14-14-14-14-14-14-14-14--/7-| 
G|-----------------------/7-|  |---------------------------/7-| 
D|-----------------------/7-|  |---------------------------/7-| 
A|--------------------------|  |------------------------------| 
E|--------------------------|  |------------------------------| 

Outro 
                                                  *Just bass section*         
e|-------------------------------------------------*---------------*---------------------| 
B|-------------------------------------------------*---------------*---------------------| 
G|-7pbr-5---5-5------------------------------------*---------------*---------------------| 
D|--------5-----5--5-3-----3-3---------------------*---------------*---------------------| 
A|---------------------3-3-----6/3-----------3-4-5-*----------3-4-5*-----------3--4--*5--| 
E|---------------------------------0-1-2-3-x-------*0-1-2-3-5------*-0-1-2-3-5-----------| 

*At last note, slide plays 
e|------------------| 
B|-10~--10/8-6/7----| 
G|---------------7~-| 
D|------------------| 
A|------------------| 
E|------------------| 



************************************ 

| /    Slide up 
| x    Dead note 
| (n)  Ghost note 
| ~    Vibrato 
| \    Slide down 
| b    Bend 
| p    Pull-off 
| pb   Pre-bend 
| h    Hammer-on 
| r    Release 
| br   Bend release 
| *    Natural harmonic 
| pbr  Pre-bend release 
   

************************************ 
  

cifra enviadasem correções
enviado porenviada por:fernsantana
top 5 | steve gaines
top rock'n roll
Outras músicas do artista letras do(a) Steve Gaines
Top cifras »Top artistas »
Petaxxon Comunicação Online
Cifras.com.br - Melhor e mais completo site de cifras e tablaturas do Brasil
Mais de 1 milhão de acordes de músicas cadastradas desde 2003
As informações contidas no nosso site são colaborações de seus usuários e podem conter erros, sendo assim, não nos responsabilizamos sobre nenhuma destas.
close
menos
mais
close
Cor dos acordes:

Cor da letra:

 

save
close
close
 
redimensionar