Cifras e Tablaturas
Steven Wilson

Steven Wilson

Home In Negative

Cifras Cancelar Versão de Impressão
cifras

Steven Wilson - Home In Negative

fixar na tela  
Exibindo: vídeo-aula ver clipes redimensionar
  Intro and Verse 

  Adim                            C                     C/B            
e|-------------------------1-------------------0-------------------------------| 
B|---1----0h1-------1----------------------1-------1--------1------------------| 
G|-----2------2--------2----------------0---------------------0-------------0--| 
D|----------------1------------------2--------------------------0---------0----| 
A|-0------------------------------3---------------------2------------2---------| 
E|-----------------------------------------------------------------------------| 
    

Chorus i'm not a 100% sure about this part, so please help in the corrections 

Chords: 
        Bb     A   Ddim   G/D 
e|--------------------1-----3------| 
B|--------3-----2-----0-----0------| 
G|--------3-----2-----1-----0------| 
D|--------3-----2-----0-----0------| 
A|--------1-----0------------------| 
E|---------------------------------| 

e|-------------------------------------------------------1--------------------3------------| 
B|--3------3------------2--------2--------------------0-----0--------------0-----0---------| 
G|-------3----3------------2-------2---------------1-----------1----1----0---------0---0---| x2 
D|----3---------3----3--------2-------2-----2---0-----------------0----0-------------0-----| 
A|--1--------------1----0----------------0-------------------------------------------------| 
E|-----------------------------------------------------------------------------------------| 


Outro 

e|--2-2-2-2--2---0--0-0-0-0---0--0-0-0-0---0--0-0-0-0----| 
B|--2-2-2-2--2---0--0-0-0-0---2--2-2-2-2---2--2-2-2-2----| 
G|--2-2-2-2--2---2--2-2-2-2---2--2-2-2-2---0--0-0-0-0----| x3 
D|--1-1-1-1--1---x--x-x-x-x---2--2-2-2-2---2--2-2-2-2----| 
A|---------------4--4-4-4-4---0--0-0-0-0---0--0-0-0-0----| 
E|-------------------------------------------------------| 
                                
e|--2-2-2-2-2---1-1-1-1-1---0-0-0-0-0---0-0-0-0-0---| 
B|--3-3-3-3-3---3-3-3-3-3---2-2-2-2-2---2-2-2-2-2---| 
G|--2-2-2-2-2---2-2-2-2-2---2-2-2-2-2---0-0-0-0-0---|repeat, and end with Dm 
D|--0-0-0-0-0---0-0-0-0-0---2-2-2-2-2---2-2-2-2-2---| 
A|--------------------------0-0-0-0-0---0-0-0-0-0---| 
E|--------------------------------------------------| 
   (You can play the chords above as a strumming or as a picking part) 
 
  

cifra enviadasem correções
enviado porenviada por:robepoiel
top 5 | steven wilson
top rock alternativo
Outras músicas do artista letras do(a) Steven Wilson
Top cifras »Top artistas »
Petaxxon Comunicação Online
Cifras.com.br - Melhor e mais completo site de cifras e tablaturas do Brasil
Mais de 1 milhão de acordes de músicas cadastradas desde 2003
As informações contidas no nosso site são colaborações de seus usuários e podem conter erros, sendo assim, não nos responsabilizamos sobre nenhuma destas.
close
menos
mais
close
Cor dos acordes:

Cor da letra:

 

save
close
close
 
redimensionar