Cifras e Tablaturas
Steven Wilson

Steven Wilson

Nowhere Now

Cifras Cancelar Versão de Impressão
cifras

Steven Wilson - Nowhere Now

fixar na tela  
Exibindo: vídeo-aula ver clipes redimensionar
  
verse 1 
4/4 
No guitar 

Chorus 1 
  Gtr 1 
    W                   +W                    W                   +W 
e|--3-----------------|--------------------|--3-----------------|--------------------| 
B|--3-----------------|--------------------|--3-----------------|--------------------| 
G|--0-----------------|--------------------|--0-----------------|--------------------| 
D|--x-----------------|--------------------|--0-----------------|--------------------| 
A|--3-----------------|--------------------|--x-----------------|--------------------| 
E|--------------------|--------------------|--3-----------------|--------------------| 

    W                   +W                    W                   +W 
e|--2-----------------|--------------------|--0-----------------|--------------------| 
B|--3-----------------|--------------------|--0-----------------|--------------------| 
G|--2-----------------|--------------------|--1-----------------|--------------------| 
D|--0-----------------|--------------------|--2-----------------|--------------------| 
A|--------------------|--------------------|--2-----------------|--------------------| 
E|--------------------|--------------------|--0-----------------|--------------------| 

    W                   +W                    W                   +W 
e|--3-----------------|--------------------|--3-----------------|--------------------| 
B|--3-----------------|--------------------|--3-----------------|--------------------| 
G|--0-----------------|--------------------|--0-----------------|--------------------| 
D|--x-----------------|--------------------|--0-----------------|--------------------| 
A|--3-----------------|--------------------|--x-----------------|--------------------| 
E|--------------------|--------------------|--3-----------------|--------------------| 

Post-Chorus 1 
  Gtr 3 
    W                   +Q.    E Q   Q       +W                   +Q.    E H 
e|--0-----------------|----------3---0-----|--------------------|----------0---------| 
B|--0-----------------|----------3---3-----|--------------------|--------2-2---------| 
G|--1-----------------|--------0-0---2-----|--------------------|--------2-2---------| 
D|--2-----------------|--------0-0---0-----|--------------------|--------2-2---------| 
A|--2-----------------|--------x-x---------|--------------------|--------0-0---------| 
E|--0-----------------|--------3-3---------|--------------------|--------------------| 

    W                   +Q.    E Q   Q       +H      +Q.    E     +E E E E E E E E 
e|--0-----------------|----------3---0-----|----------------0---|----0-0-0-----------| 
B|--0-----------------|----------3---3-----|----------------0---|----5-5-5-3-2-0-----| 
G|--1-----------------|--------0-0---2-----|----------------1---|----------------0---| 
D|--2-----------------|--------0-0---0-----|----------------2---|--------------------| 
A|--2-----------------|--------x-x---------|--------------------|--------------------| 
E|--0-----------------|--------3-3---------|--------------------|--------------------| 

verse 2 
  Gtr 3 
    W                   +Q.    E Q   Q       +W                   +Q.    E H         (x3) 
e|--0-----------------|----------3---0-----|--------------------|----------0---------| 
B|o-0-----------------|----------3---3-----|--------------------|--------2-2--------o| 
G|--1-----------------|--------0-0---2-----|--------------------|--------2-2---------| 
D|--2-----------------|--------0-0---0-----|--------------------|--------2-2---------| 
A|o-2-----------------|--------x-x---------|--------------------|--------0-0--------o| 
E|--0-----------------|--------3-3---------|--------------------|--------------------| 

    W                   +Q.    E Q   Q       +H      +E E E E      E E E E H 
e|--0-----------------|----------3---0-----|--------------------|----------0---------| 
B|--0-----------------|----------3---3-----|------------3-3-3---|--3-3-3-2-2---------| 
G|--1-----------------|--------0-0---2-----|------------2-2-2---|--2-2-2-2-2---------| 
D|--2-----------------|--------0-0---0-----|------------0-0-0---|--0-0-0-2-2---------| 
A|--2-----------------|--------x-x---------|--------------------|--------0-0---------| 
E|--0-----------------|--------3-3---------|--------------------|--------------------| 

Chorus 2 
  Gtr 1 
    Q   E Q.    E E     +Q   E Q   E E E      Q   E Q.    E E     +Q   E Q   E E E 
e|--3---3-3-----3-3---|------3-3---3-3-3---|--3---3-3-----3-3---|------3-3---3-3-3---| 
B|--3---3-3-----3-3---|------3-3---3-3-3---|--3---3-3-----3-3---|------3-3---3-3-3---| 
G|--0---0-0-----0-0---|------0-0---0-0-0---|--0---0-0-----0-0---|------0-0---0-0-0---| 
D|--x---x-x-----x-x---|------x-x---x-x-x---|--0---0-0-----0-0---|------0-0---0-0-0---| 
A|--3---3-3-----3-3---|------3-3---3-3-3---|--x---x-x-----x-x---|------x-x---x-x-x---| 
E|--------------------|--------------------|--3---3-3-----3-3---|------3-3---3-3-3---| 
 |                    |                    |                    |                    | 
 |Gtr 2               |                    |                    |                    | 
 |  E E E E E E E E   |  E E E E E E Q     |  E E E E E E E E   |  E E E E E E Q     | 
e|--8-----7-----8-----|----7-----8-7-------|--7-----5-----5-----|----5-----5---------| 
B|----8-----8-----8---|------8-------8-----|----8-----8-----8---|------8-----8-------| 
G|------7-----7-------|--7-----7-----------|------7-----7-------|--7-----7-----7-----| 
D|--------------------|--------------------|--------------------|--------------------| 
A|--------------------|--------------------|--------------------|--------------------| 
E|--------------------|--------------------|--------------------|--------------------| 

    Q   E Q.    E E     +Q   E Q   E E E      Q   E Q.    E E     +Q   E Q   E E E 
e|--2---2-2-----2-2---|------2-2---2-2-2---|--0---0-0-----0-0---|------0-0---0-0-0---| 
B|--3---3-3-----3-3---|------3-3---3-3-3---|--0---0-0-----0-0---|------0-0---0-0-0---| 
G|--2---2-2-----2-2---|------2-2---2-2-2---|--1---1-1-----1-1---|------1-1---1-1-1---| 
D|--0---0-0-----0-0---|------0-0---0-0-0---|--2---2-2-----2-2---|------2-2---2-2-2---| 
A|--------------------|--------------------|--2---2-2-----2-2---|------2-2---2-2-2---| 
E|--------------------|--------------------|--0---0-0-----0-0---|------0-0---0-0-0---| 
 |                    |                    |                    |                    | 
 |  E E E E E E E E   |  E E E E E E Q     |  E E E E E E E E   |  E E E E E E Q     | 
e|--3-----2-----3-----|----2-----3-2-------|--5-----4-----5-----|----4-----5-4-------| 
B|----3-----3-----3---|------3-------3-----|----5-----5-----5---|------5-------5-----| 
G|------2-----2-------|--2-----2-----------|------4-----4-------|--4-----4-----------| 
D|--------------------|--------------------|--------------------|--------------------| 
A|--------------------|--------------------|--------------------|--------------------| 
E|--------------------|--------------------|--------------------|--------------------| 

  Gtr 1 
    Q   E Q.    E E     +Q   E Q   E E E      Q   E Q.    E E     +Q   E Q   E E E 
e|--3---3-3-----3-3---|------3-3---3-3-3---|--3---3-3-----3-3---|------3-3---3-3-3---| 
B|--3---3-3-----3-3---|------3-3---3-3-3---|--3---3-3-----3-3---|------3-3---3-3-3---| 
G|--0---0-0-----0-0---|------0-0---0-0-0---|--0---0-0-----0-0---|------0-0---0-0-0---| 
D|--x---x-x-----x-x---|------x-x---x-x-x---|--0---0-0-----0-0---|------0-0---0-0-0---| 
A|--3---3-3-----3-3---|------3-3---3-3-3---|--x---x-x-----x-x---|------x-x---x-x-x---| 
E|--------------------|--------------------|--3---3-3-----3-3---|------3-3---3-3-3---| 
 |                    |                    |                    |                    | 
 |Gtr 2               |                    |                    |                    | 
 |  E E E E E E E E   |  E E E E E E Q     |  E E E E E E E E   |  E E E E E E Q     | 
e|--8-----7-----8-----|----7-----8-7-------|--7-----5-----5-----|----5-----5---------| 
B|----8-----8-----8---|------8-------8-----|----8-----8-----8---|------8-----8-------| 
G|------7-----7-------|--7-----7-----------|------7-----7-------|--7-----7-----7-----| 
D|--------------------|--------------------|--------------------|--------------------| 
A|--------------------|--------------------|--------------------|--------------------| 
E|--------------------|--------------------|--------------------|--------------------| 
 |                    |                    |                    |                    | 
 |Gtr 4               |                    |                    |                    | 
 | (W)                | (W)                | (W)                | (H)      H         | 
e|--------------------|--------------------|--------------------|--------------------| 
B|--------------------|--------------------|--------------------|----------2/--------| 
G|--------------------|--------------------|--------------------|----------2/--------| 
D|--------------------|--------------------|--------------------|----------2/--------| 
A|--------------------|--------------------|--------------------|--------------------| 
E|--------------------|--------------------|--------------------|--------------------| 

Post-Chorus 2 
  Gtr 3 
    W                   +H       Q   Q       +W                   +Q.    E H 
e|--0-----------------|----------3---0-----|--------------------|----------0---------| 
B|--0-----------------|----------3---3-----|--------------------|--------2-2---------| 
G|--1-----------------|----------0---2-----|--------------------|--------2-2---------| 
D|--2-----------------|----------0---0-----|--------------------|--------2-2---------| 
A|--2-----------------|----------x---------|--------------------|--------0-0---------| 
E|--0-----------------|----------3---------|--------------------|--------------------| 
 |                    |                    |                    |                    | 
 |Gtr 4               |                    |                    |                    | 
 |  H.          E E   |  H       Q   Q     | +H.          E E   |  H       H         | 
e|--------------------|--------------------|--------------------|--------------------| 
B|--9-----------9-----|-(9)\-----12\-7-----|--------------7-----|-(7)\-----2/--------| 
G|--9-------------9---|-(9)\-----12\-7-----|----------------7---|-(7)\-----2/--------| 
D|--9-----------------|-(9)\-----12\-7-----|--------------------|-(7)\-----2/--------| 
A|--------------------|--------------------|--------------------|--------------------| 
E|--------------------|--------------------|--------------------|--------------------| 

    W                   +H       Q   Q       +W                   +Q.    E H 
e|--0-----------------|----------3---0-----|--------------------|----------0---------| 
B|--0-----------------|----------3---3-----|--------------------|--------2-2---------| 
G|--1-----------------|----------0---2-----|--------------------|--------2-2---------| 
D|--2-----------------|----------0---0-----|--------------------|--------2-2---------| 
A|--2-----------------|----------x---------|--------------------|--------0-0---------| 
E|--0-----------------|----------3---------|--------------------|--------------------| 
 |                    |                    |                    |                    | 
 |  H     +E E  E E   | +E Q.    Q   Q     | +H       Q   E E   | +W                 | 
e|--------------------|--------------------|--------------------|--------------------| 
B|--9--------10\9-----|----------12\-7-----|----------7\----7\--|--------------------| 
G|--9-------------9---|----------12\-7-----|----------7\--0-7\--|--------------------| 
D|--9-----------------|----9-----12\-7-----|----------7\--0-7\--|--------------------| 
A|--------------------|--------------------|--------------------|--------------------| 
E|--------------------|--------------------|--------------------|--------------------| 

Solo 
  Gtr 3 
    E Q   Q   E E E     +E Q   E E E  E  E      E Q   Q   E E E     +E Q   E E E  E  E 
e|--------------------|----------------------|--------------------|----------------------| 
B|--7h8---------7h8---|----------------------|--7h8---------7h8---|----------------------| 
G|--------9---7-------|----9---9-9/11-11\9---|--------9---7-------|----9---9-9/11-11\9---| 
D|--------------------|----------------------|--------------------|----------------------| 
A|--------------------|----------------------|--------------------|----------------------| 
E|--------------------|----------------------|--------------------|----------------------| 

   (W)                  (W) 
e|--------------------|--------------------| 
B|--------------------|--------------------| 
G|--------------------|--------------------| 
D|--------------------|--------------------| 
A|--------------------|--------------------| 
E|--------------------|--------------------| 

    E Q   Q   E E E     +E Q   E E E  E  E      E Q   Q   E E E     +E Q   E E E  E  E 
e|--------------------|----------------------|--------------------|----------------------| 
B|--7h8---------7h8---|----------------------|--7h8---------7h8---|----------------------| 
G|--------9~--7-------|----9~--9-9/11-11\9---|--------9~--7-------|----9~--9-9/11-11\9---| 
D|--------------------|----------------------|--------------------|----------------------| 
A|--------------------|----------------------|--------------------|----------------------| 
E|--------------------|----------------------|--------------------|----------------------| 

    S  S  S S  S  S  S  S H                  S S E  (E)  S S S S S S H 
e|----------------------------------------|------------------------------------| 
B|--10h12-8h10----------------------------|----------------------7h8p7---------| 
G|-------------11b12r11p9-11~-------------|------7-----------7h9---------------| 
D|----------------------------------------|--7h9---------7h9-------------------| 
A|----------------------------------------|------------------------------------| 
E|----------------------------------------|------------------------------------| 

Post-Solo 
  Gtr 1, 2 
    E E E E E E E E      E E E E E E E E      E E E E E E E E      E E E E E E E E   (x2) 
e|--------------------|--------------------|--0-----0-----2-----|----2-----2---0-----| 
B|o-0-----2-----4-----|------4---4---4-----|----2-----2-----3---|------3-----3---3--o| 
G|----0---------------|--4-----------------|------2-----2-------|--2-----2-----------| 
D|------0---2-----4---|----4---4---4---4---|--------------------|--------------------| 
A|o-----------0-------|--------------------|--------------------|-------------------o| 
E|--------------------|--------------------|--------------------|--------------------| 

Chorus 3 
  Gtr 1 
    Q   E Q.    E E     +Q   E Q   E E E      Q   E Q.    E E     +Q   E Q   E E E 
e|--3---3-3-----3-3---|------3-3---3-3-3---|--3---3-3-----3-3---|------3-3---3-3-3---| 
B|--3---3-3-----3-3---|------3-3---3-3-3---|--3---3-3-----3-3---|------3-3---3-3-3---| 
G|--0---0-0-----0-0---|------0-0---0-0-0---|--0---0-0-----0-0---|------0-0---0-0-0---| 
D|--x---x-x-----x-x---|------x-x---x-x-x---|--0---0-0-----0-0---|------0-0---0-0-0---| 
A|--3---3-3-----3-3---|------3-3---3-3-3---|--x---x-x-----x-x---|------x-x---x-x-x---| 
E|--------------------|--------------------|--3---3-3-----3-3---|------3-3---3-3-3---| 
 |                    |                    |                    |                    | 
 |Gtr 2               |                    |                    |                    | 
 |  E E E E E E E E   |  E E E E E E Q     |  E E E E E E E E   |  E E E E E E Q     | 
e|--8-----7-----8-----|----7-----8-7-------|--7-----5-----5-----|----5-----5---------| 
B|----8-----8-----8---|------8-------8-----|----8-----8-----8---|------8-----8-------| 
G|------7-----7-------|--7-----7-----------|------7-----7-------|--7-----7-----7-----| 
D|--------------------|--------------------|--------------------|--------------------| 
A|--------------------|--------------------|--------------------|--------------------| 
E|--------------------|--------------------|--------------------|--------------------| 

    Q   E Q.    E E     +Q   E Q   E E E      Q   E Q.    E E     +Q   E Q   E E E 
e|--2---2-2-----2-2---|------2-2---2-2-2---|--0---0-0-----0-0---|------0-0---0-0-0---| 
B|--3---3-3-----3-3---|------3-3---3-3-3---|--0---0-0-----0-0---|------0-0---0-0-0---| 
G|--2---2-2-----2-2---|------2-2---2-2-2---|--1---1-1-----1-1---|------1-1---1-1-1---| 
D|--0---0-0-----0-0---|------0-0---0-0-0---|--2---2-2-----2-2---|------2-2---2-2-2---| 
A|--------------------|--------------------|--2---2-2-----2-2---|------2-2---2-2-2---| 
E|--------------------|--------------------|--0---0-0-----0-0---|------0-0---0-0-0---| 
 |                    |                    |                    |                    | 
 |  E E E E E E E E   |  E E E E E E Q     |  E E E E E E E E   |  E E E E E E.      | 
e|--3-----2-----3-----|----2-----3-2-------|--5-----4-----5-----|----4-----5-4-------| 
B|----3-----3-----3---|------3-------3-----|----5-----5-----5---|------5-------------| 
G|------2-----2-------|--2-----2-----------|------4-----4-------|--4-----4-----------| 
D|--------------------|--------------------|--------------------|--------------------| 
A|--------------------|--------------------|--------------------|--------------------| 
E|--------------------|--------------------|--------------------|--------------------| 

  Gtr 1 
    Q   E Q.    E E     +Q   E Q   E E E      Q   E Q.    E E     +Q   E Q   E E E 
e|--3---3-3-----3-3---|------3-3---3-3-3---|--3---3-3-----3-3---|------3-3---3-3-3---| 
B|--3---3-3-----3-3---|------3-3---3-3-3---|--3---3-3-----3-3---|------3-3---3-3-3---| 
G|--0---0-0-----0-0---|------0-0---0-0-0---|--0---0-0-----0-0---|------0-0---0-0-0---| 
D|--x---x-x-----x-x---|------x-x---x-x-x---|--0---0-0-----0-0---|------0-0---0-0-0---| 
A|--3---3-3-----3-3---|------3-3---3-3-3---|--x---x-x-----x-x---|------x-x---x-x-x---| 
E|--------------------|--------------------|--3---3-3-----3-3---|------3-3---3-3-3---| 
 |                    |                    |                    |                    | 
 |  E E E E E E E E   |  E E E E E E Q     |  E E E E E E E E   |  E E E E E E Q     | 
e|--8-----7-----8-----|----7-----8-7-------|--7-----5-----5-----|----5-----5---------| 
B|----8-----8-----8---|------8-------8-----|----8-----8-----8---|------8-----8-------| 
G|------7-----7-------|--7-----7-----------|------7-----7-------|--7-----7-----7-----| 
D|--------------------|--------------------|--------------------|--------------------| 
A|--------------------|--------------------|--------------------|--------------------| 
E|--------------------|--------------------|--------------------|--------------------| 

Outro 
  Gtr 3 
    H      Q.     E     +H       Q   Q       +H.          E E     +Q.    E H 
e|--0-------------0---|----------3---0-----|--------------0-0---|--------0-0---------| 
B|--0-------------0---|----------3---3-----|--------------3-3---|--------2-2---------| 
G|--1-------------1---|----------0---2-----|--------------2-2---|--------2-2---------| 
D|--2-------------2---|----------0---0-----|--------------0-0---|--------2-2---------| 
A|--2-------------2---|----------x---------|--------------------|--------0-0---------| 
E|--0-------------0---|----------3---------|--------------------|--------------------| 

    H      Q.     E     +H       Q   Q       +H.          E E     +E Q   E E E Q 
e|--0-------------0---|----------3---0-----|--------------0-0---|----0---0-0-0-0-----| 
B|--0-------------0---|----------3---3-----|--------------3-3---|----5---5-3-2-0-----| 
G|--1-------------1---|----------0---2-----|--------------2-2---|--------------------| 
D|--2-------------2---|----------0---0-----|--------------0-0---|--------------------| 
A|--2-------------2---|----------x---------|--------------------|--------------------| 
E|--0-------------0---|----------3---------|--------------------|--------------------| 

    H      Q.     E     +H       Q   Q       +H.          E E     +Q.    E H 
e|--0-------------0---|----------3---0-----|--------------0-0---|--------0-0---------| 
B|--0-------------0---|----------3---3-----|--------------3-3---|--------2-2---------| 
G|--1-------------1---|----------0---2-----|--------------2-2---|--------2-2---------| 
D|--2-------------2---|----------0---0-----|--------------0-0---|--------2-2---------| 
A|--2-------------2---|----------x---------|--------------------|--------0-0---------| 
E|--0-------------0---|----------3---------|--------------------|--------------------| 

    H      Q.     E     +H       Q   Q       +H.          E E      E E E E H 
e|--0-------------0---|----------3---0-----|--------------0-0---|--0-0-0-0-0---------| 
B|--0-------------0---|----------3---3-----|--------------3-3---|--3-3-3-2-2---------| 
G|--1-------------1---|----------0---2-----|--------------2-2---|--2-2-2-2-2---------| 
D|--2-------------2---|----------0---0-----|--------------0-0---|--0-0-0-2-2---------| 
A|--2-------------2---|----------x---------|--------------------|--------0-0---------| 
E|--0-------------0---|----------3---------|--------------------|--------------------| 

   (Wx...) 
e|--------------------|--------------------| 
B|--------------------|--------------------| 
G|--------------------|--------------------| 
D|--------------------|--------------------| 
A|--------------------|--------------------| 
E|--------------------|--------------------| 

************************************ 

|  ~   Vibrato 
| (n)  Ghost note 
|  \   Slide down 
|  x   Dead note 
|  PM  Palm mute 
|  h   Hammer-on 
|  p   Pull-off 
|  /   Slide up 
|  b   Bend 
|  r   Release Bend 
|  S   Sixteenth note 
|  E   Eighth note 
|  Q   Quarter note 
|  H   Half note 
|  W   Whole note 
|  .   Dotted note 
| (N)  Rest 
|  +   Add note value 
|o o|  Reprise 

************************************ 
  

cifra enviadasem correções
enviado porenviada por:andrsouza
top 5 | steven wilson
top rock alternativo
Outras músicas do artista letras do(a) Steven Wilson
Top cifras »Top artistas »
Petaxxon Comunicação Online
Cifras.com.br - Melhor e mais completo site de cifras e tablaturas do Brasil
Mais de 1 milhão de acordes de músicas cadastradas desde 2003
As informações contidas no nosso site são colaborações de seus usuários e podem conter erros, sendo assim, não nos responsabilizamos sobre nenhuma destas.
close
menos
mais
close
Cor dos acordes:

Cor da letra:

 

save
close
close
 
redimensionar