Cifras e Tablaturas
Steven Wilson

Steven Wilson

Song Of Unborn

Cifras Cancelar Versão de Impressão
cifras

Steven Wilson - Song Of Unborn

fixar na tela  
Exibindo: vídeo-aula ver clipes redimensionar
  

Guitar 1: 1:05 - 1:44 
                                    x2 
e|-0---0---0--------0---0----3----2--||--0---0---0---------------------------| 
B|-1---3---0--------0---3----1----3--||--1---3---0---------------------------| 
G|-0---2---1--------1---2----0----2--||--0---2---1---------------------------| 
D|-2---0---2--------2---0----2----0--||--2---0---2---------------------------| 
A|-3-------2--------2--------3-------||--3-------2---------------------------| 
E|---------0--------0----------------||----------0---------------------------| 






Guitar 1: 2:17 - 3:16 

                                                           x4 
e|----------2-----------2-------------------5--------------||---0--0---------| 
B|--3---------3-----3---------------7---------7------7---7-||---1--0---------| 
G|----4---4-----4---4--------------------6-------6---------||---0--0---------| 
D|------4---------0-0-0----------------7---7---------------||---2--2---------| 
A|------------------------------------------------5--5-5---||---3--2---------| 
E|---------------------------------------------------------||------0---------| 


Guitar 2: 2:46 - 3:16 
                                                               x2 
e|---------14-------------14------------------14-------------14||---12---14--| 
B|-15--------15-----15------------14------------14-----15------||---13---14--| 
G|---16--16----16---16---------------14----14-----14------14---||---12---16--| 
D|-----16--------16----17--------------------------------------||------------| 
A|--------------------------------------16---------------------||------------| 
E|-------------------------------------------------------------||------------| 




Guitar 1: 3:23 - 5:43. Strumming pattern becomes more frequent after 4:30. 

                                     x8 
e|-0---0---0--------0---0----3----2--||--0---0---0------------------------| 
B|-1---3---0--------0---3----1----3--||--1---3---0------------------------| 
G|-0---2---1--------1---2----0----2--||--0---2---1------------------------| 
D|-2---0---2--------2---0----2----0--||--2---0---2------------------------| 
A|-3-------2--------2--------3-------||--3-------2------------------------| 
E|---------0--------0----------------||----------0------------------------| 


Guitar 2: 3:57 - 5.43. Electric guitar introduced, slightly overdriven. 

                                     x6 
e|-0---0---0--------0---0----3----2--||--0---0---0------------------------| 
B|-1---3---0--------0---3----1----3--||--1---3---0------------------------| 
G|-0---2---1--------1---2----0----2--||--0---2---1------------------------| 
D|-2---0---2--------2---0----2----0--||--2---0---2------------------------| 
A|-3-------2--------2--------3-------||--3-------2------------------------| 
E|---------0--------0----------------||----------0------------------------| 





Solo guitar: 4:57 - 5:44. Played with an ebow. 

e|------------------------------------------------------------------------| 
B|------------------------------------------------------------------------| 
G|------------------------------------------------------------------------| 
D|------------------------------------------------------------------------| 
A|-14~---12~--10~-10\9~---9/10\9/10\9/10\9/10\9~~~------7~~~-------5~~~---| 
E|------------------------------------------------------------------------| 

e|------------------------------------------------------------------------| 
B|------------------------------------------------------------------------| 
G|------------------------------------------------------------------------| 
D|------------------------------------------------------------------------| 
A|--7~---9~--10~---12~-----14~~~~~---------12~------10~--9~~~/10\9~~/10\9-| 
E|------------------------------------------------------------------------| 

e|------------------------------------------------------------------------| 
B|------------------------------------------------------------------------| 
G|------------------------------------------------------------------------| 
D|------------------------------------------------------------------------| 
A|7~------9~-------11~----------------------------------------------------| 
E|------------------------------------------------------------------------| 


| /  slide up 
| \  slide down 
| ~  vibrato 
  

top 5 | steven wilson
top rock alternativo
Outras músicas do artista letras do(a) Steven Wilson
Top cifras »Top artistas »
Petaxxon Comunicação Online
Cifras.com.br - Melhor e mais completo site de cifras e tablaturas do Brasil
Mais de 1 milhão de acordes de músicas cadastradas desde 2003
As informações contidas no nosso site são colaborações de seus usuários e podem conter erros, sendo assim, não nos responsabilizamos sobre nenhuma destas.
close
menos
mais
close
Cor dos acordes:

Cor da letra:

 

save
close
close
 
redimensionar