Cifras e Tablaturas
Stick To Your Guns

Stick To Your Guns

Empty Heads

Cifras Cancelar Versão de Impressão
cifras

Stick To Your Guns - Empty Heads

fixar na tela  
Exibindo: vídeo-aula ver clipes redimensionar
  
Tuning: D G C F A D 

Riff 1, Guitar 1 & 2 - 00:00 - 00:25 
- ----------------------------------------------------------------- 
- ----------------------------------------------------------------- 
- ----------------------------------------------------------------- 
- ----------------------------------------------------------------- 
- ----------------------------------------------------------------- 
- ----------------------------------------------------------------- 
- 
- ----------------------------------------------------------------- 
- ----------------------------------------------------------------- 
- ----------------------------------------------------------------- 
- ---------------------------------\\\----------------------------- 
- ---------------------------------\\\----------------------------- 
- ---------------------------------\\\---------------------12\----- 


- ----------------------------------------------------------------- 
- ----------------------------------------------------------------- 
- -------------------------------------------------3--------------- 
- -2---2-2-----2---5-----7-----8-------2---2-2-2---x-----2-----3--- 
- -2---2-2-----2---5-----5-----8-------2---2-2-2---1-----2-----3--- 
- -0---0-0-----0---3-----5-----6-------0---0-0-0---------0-----1--- 
- 
- ----------------------------------------------------------------- 
- ----------------------------------------------------------------- 
- ----------------------------------------------------------------- 
- -2--------------------------------------------------------------- 
- -2--------------------------------------------------------------- 
- -0----------------------------------------------------------/15\- 


- ----------------------------------------------------------------- 
- ----------------------------------------------------------------- 
- ----------------------------------------------------------------- 
- -2-----------------------------------------------\\\------------- 
- -2-----------------------------------------------\\\------------- 
- -0-----------------------------------------------\\\------------- 
- 
- ----------------------------------------------------------------- 
- ----------------------------------------------------------------- 
- ----------------------------------------------------------------- 
- -2-------------------------------\\\----------------------------- 
- -2-------------------------------\\\----------------------------- 
- -0-------------------------------\\\----------------------------- 


- ----------------------------------------------------------------- 
- ----------------------------------------------------------------- 
- -------------------------------------------------3--------------- 
- -2---2-2-----2---5-----7-----8-------2---2-2-2---x-----2-----3--- 
- -2---2-2-----2---5-----5-----8-------2---2-2-2---1-----2-----3--- 
- -0---0-0-----0---3-----5-----6-------0---0-0-0---------0-----1--- 
- 
- ----------------------------------------------------------------- 
- ----------------------------------------------------------------- 
- -------------------------------------------------3--------------- 
- -2---2-2-----2---5-----7-----8-------2---2-2-2---x-----2-----3--- 
- -2---2-2-----2---5-----5-----8-------2---2-2-2---1-----2-----3--- 
- -0---0-0-----0---3-----5-----6-------0---0-0-0---------0-----1--- 


- ----------------------------------------------------------------- 
- ----------------------------------------------------------------- 
- ----------------------------------------------------------------- 
- -2-----------------------------------------------\\\------------- 
- -2-----------------------------------------------\\\------------- 
- -0-----------------------------------------------\\\------------- 
- 
- ----------------------------------------------------------------- 
- ----------------------------------------------------------------- 
- ----------------------------------------------------------------- 
- -2-----------------------------------------------\\\------------- 
- -2-----------------------------------------------\\\------------- 
- -0-----------------------------------------------\\\------------- 


- ----------------------------------------------------------------- 
- ----------------------------------------------------------------- 
- -------------------------------------------------3--------------- 
- -2---2-2-----2---5-----7-----8-------2---2-2-2---x-----2-----3--- 
- -2---2-2-----2---5-----5-----8-------2---2-2-2---1-----2-----3--- 
- -0---0-0-----0---3-----5-----6-------0---0-0-0---------0-----1--- 
- 
- ----------------------------------------------------------------- 
- ----------------------------------------------------------------- 
- -------------------------------------------------3--------------- 
- -2---2-2-----2---5-----7-----8-------2---2-2-2---x-----2-----3--- 
- -2---2-2-----2---5-----5-----8-------2---2-2-2---1-----2-----3--- 
- -0---0-0-----0---3-----5-----6-------0---0-0-0---------0-----1--- 


- ----------------------------------------------------------------- 
- ----------------------------------------------------------------- 
- ----------------------------------------------------------------- 
- -2-----------------------------------------------\\\------------- 
- -2-----------------------------------------------\\\------------- 
- -0-----------------------------------------------\\\------------- 
- 
- ----------------------------------------------------------------- 
- ----------------------------------------------------------------- 
- ----------------------------------------------------------------- 
- -2-----------------------\\\------------------------------------- 
- -2-----------------------\\\------------------------------------- 
- -0-----------------------\\\------------------------------------- 


- ----------------------------------------------------------------- 
- ----------------------------------------------------------------- 
- -------------------------------------------------3--------------- 
- -2---2-2-----2---5-----7-----8-------2---2-2-2---x-----2-----3--- 
- -2---2-2-----2---5-----5-----8-------2---2-2-2---1-----2-----3--- 
- -0---0-0-----0---3-----5-----6-------0---0-0-0---------0-----1--- 
- 
- ----------------------------------------------------------------- 
- ----------------------------------------------------------------- 
- -------------------------------------------------3--------------- 
- -2---2-2-----2---5-----7-----8-------2---2-2-2---x-----2-----3--- 
- -2---2-2-----2---5-----5-----8-------2---2-2-2---1-----2-----3--- 
- -0---0-0-----0---3-----5-----6-------0---0-0-0---------0-----1--- 


- ----------------------------------------------------------------- 
- ----------------------------------------------------------------- 
- ----------------------------------------------------------------- 
- -2--------------------------------------------------------------- 
- -2-------2---2---2---2---2---2---2---2---2---2---2---2---2---2--- 
- -0-------0---0---0---0---0---0---0---0---0---0---0---0---0---0--- 
PM         ....................................................... 
- ----------------------------------------------------------------- 
- ----------------------------------------------------------------- 
- ----------------------------------------------------------------- 
- -2--------------------------------------------------------------- 
- -2-------2---2---2---2---2---2---2---2---2---2---2---2---2---2--- 
- -0-------0---0---0---0---0---0---0---0---0---0---0---0---0---0--- 
PM         ....................................................... 


Riff 2, Guitar 1 & 2 - 00:25 - 00:46 
- -----------------------------0----------------------------------- 
- -----------------------------0----------------------------------- 
- -----------------------------3----------------------------------- 
- -2---------------------------2-------2-----------------------3--- 
- -2-------2---2-2-2---2---2---1-------2---2---2-2-2---2---2---3--- 
- -0-------0---0-0-0---0---0-----------0---0---0-0-0---0---0---1--- 
PM         .................               ................. 
- -----------------------------0----------------------------------- 
- -----------------------------0----------------------------------- 
- -----------------------------3----------------------------------- 
- -2---------------------------2-------2-----------------------3--- 
- -2-------2---2-2-2---2---2---1-------2---2---2-2-2---2---2---3--- 
- -0-------0---0-0-0---0---0-----------0---0---0-0-0---0---0---1--- 
PM         .................               ................. 


- ----------------------------------------------------------------- 
- ----------------------------------------------------------------- 
- ---------------------------------------------3------------------- 
- -----2-----------------------3-------2-------x-------2-------3--- 
- -----2---2---2-2-2---2---2---3-------2-------1-------2-------3--- 
- -----0---0---0-0-0---0---0---1---0---0---0-------0---0---0---1--- 
PM         .................       .       .       .       . 
- ----------------------------------------------------------------- 
- ----------------------------------------------------------------- 
- ---------------------------------------------3------------------- 
- -----2-----------------------3-------2-------x-------2-------3--- 
- -----2---2---2-2-2---2---2---3-------2-------1-------2-------3--- 
- -----0---0---0-0-0---0---0---1---0---0---0-------0---0---0---1--- 
PM         .................       .       .       .       . 


- -----------------------------0----------------------------------- 
- -----------------------------0----------------------------------- 
- -----------------------------3----------------------------------- 
- -----2-----------------------2-------2-----------------------3--- 
- -----2---2---2-2-2---2---2---1-------2---2---2-2-2---2---2---3--- 
- -----0---0---0-0-0---0---0-----------0---0---0-0-0---0---0---1--- 
PM         .................               ................. 
- -----------------------------0----------------------------------- 
- -----------------------------0----------------------------------- 
- -----------------------------3----------------------------------- 
- -----2-----------------------2-------2-----------------------3--- 
- -----2---2---2-2-2---2---2---1-------2---2---2-2-2---2---2---3--- 
- -----0---0---0-0-0---0---0-----------0---0---0-0-0---0---0---1--- 
PM         .................               ................. 


- ----------------------------------------------------------------- 
- ----------------------------------------------------------------- 
- ---------------------------------------------3------------------- 
- -----2-----------------------3-------2-------x-------2-------3--- 
- -----2---2---2-2-2---2---2---3-------2-------1-------2-------3--- 
- -----0---0---0-0-0---0---0---1---0---0---0-------0---0---0---1--- 
PM         .................       .       .       .       . 
- ----------------------------------------------------------------- 
- ----------------------------------------------------------------- 
- ---------------------------------------------3------------------- 
- -----2-----------------------3-------2-------x-------2-------3--- 
- -----2---2---2-2-2---2---2---3-------2-------1-------2-------3--- 
- -----0---0---0-0-0---0---0---1---0---0---0-------0---0---0---1--- 
PM         .................       .       .       .       . 


- -----------------------------0----------------------------------- 
- -----------------------------0----------------------------------- 
- -----------------------------3----------------------------------- 
- -2---------------------------2-------2-----------------------3--- 
- -2-------2---2-2-2---2---2---1-------2---2---2-2-2---2---2---3--- 
- -0-------0---0-0-0---0---0-----------0---0---0-0-0---0---0---1--- 
PM         .................               ................. 
- -----------------------------0----------------------------------- 
- -----------------------------0----------------------------------- 
- -----------------------------3----------------------------------- 
- -2---------------------------2-------2-----------------------3--- 
- -2-------2---2-2-2---2---2---1-------2---2---2-2-2---2---2---3--- 
- -0-------0---0-0-0---0---0-----------0---0---0-0-0---0---0---1--- 
PM         .................               ................. 


- ----------------------------------------------------------------- 
- ----------------------------------------------------------------- 
- ---------------------------------------------3------------------- 
- -----2-----------------------3-------2-------x-------2-------3--- 
- -----2---2---2-2-2---2---2---3-------2-------1-------2-------3--- 
- -----0---0---0-0-0---0---0---1---0---0---0-------0---0---0---1--- 
PM         .................       .       .       .       . 
- ----------------------------------------------------------------- 
- ----------------------------------------------------------------- 
- ---------------------------------------------3------------------- 
- -----2-----------------------3-------2-------x-------2-------3--- 
- -----2---2---2-2-2---2---2---3-------2-------1-------2-------3--- 
- -----0---0---0-0-0---0---0---1---0---0---0-------0---0---0---1--- 
PM         .................       .       .       .       . 


- -----------------------------0----------------------------------- 
- -----------------------------0----------------------------------- 
- -----------------------------3----------------------------------- 
- -3---2-----------------------2-------2-----------------------3--- 
- -3---2---2---2-2-2---2---2---1-------2---2---2-2-2---2---2---3--- 
- -1---0---0---0-0-0---0---0-----------0---0---0-0-0---0---0---1--- 
PM         .................               ................. 
- -----------------------------0----------------------------------- 
- -----------------------------0----------------------------------- 
- -----------------------------3----------------------------------- 
- -3---2-----------------------2-------2-----------------------3--- 
- -3---2---2---2-2-2---2---2---1-------2---2---2-2-2---2---2---3--- 
- -1---0---0---0-0-0---0---0-----------0---0---0-0-0---0---0---1--- 
PM         .................               ................. 


- ----------------------------------------------------------------- 
- ----------------------------------------------------------------- 
- ----------------------------------------------------------------- 
- -2--------------------------------------------------------------- 
- -2---2---2---2---2---2---2---2---2---2---2---2---2---2---2---2--- 
- -0---0---0---0---0---0---0---0---0---0---0---0---0---0---0---0--- 
PM     ........................................................... 
- ----------------------------------------------------------------- 
- ----------------------------------------------------------------- 
- -------------------------------------7--/9---9---9---9---9---9--- 
- -2-----------------------------------x---x---x---x---x---x---x--- 
- -2---2---2---2---2---2---2---2---2---5--/7---7---7---7---7---7--- 
- -0---0---0---0---0---0---0---0---0------------------------------- 
PM     ............................. 


Riff 3 - 00:46 - 01:10 
- ----------------------------------------------------------------- 
- ----------------------------------------------------------------- 
- ----------------------------------------------------------------- 
- -3--------------------------------------------------------------- 
- -3-------2-------2-----------2---2---2---2-----------2---2---2--- 
- -1-------0-------0-----------0---0---0---0-----------0---0---0--- 
PM         ....................................................... 

- ----------------------------------------------------------------- 
- ----------------------------------------------------------------- 
- ---------------------------------------------------------3------- 
- -3---------------------------3---------------------------x------- 
- -3-------2-------2-------2---3-------2-------2---2---3---1---4--- 
- -1-------0-------0-------0---1-------0-------0---0---1-------2--- 
PM         .................           .................       . 

- ----------------------------------------------------------------- 
- ----------------------------------------------------------------- 
- ----------------------------------------------------------------- 
- -3--------------------------------------------------------------- 
- -3-------2-------2-----------2---2---2---2-----------2---2---2--- 
- -1-------0-------0-----------0---0---0---0-----------0---0---0--- 
PM         ....................................................... 

- ----------------------------------------------------------------- 
- ----------------------------------------------------------------- 
- ----------------------------------------------------------------- 
- -3---------------------------3---------------6-------5----------- 
- -3-------2-------2-------2---3-------2-------6-------5-------2--- 
- -1-------0-------0-------0---1-------0-------4-------3-------0--- 
PM         .................           .                       . 

- ----------------------------------------------------------------- 
- ----------------------------------------------------------------- 
- ----------------------------------------------------------------- 
- -3--------------------------------------------------------------- 
- -3-------2-------2-----------2---2---2---2-----------2---2---2--- 
- -1-------0-------0-----------0---0---0---0-----------0---0---0--- 
PM         .........           ................................... 

- ----------------------------------------------------------------- 
- ----------------------------------------------------------------- 
- ---------------------------------------------------------3------- 
- -3---------------------------3---------------------------x------- 
- -3-------2-------2-------2---3-------2-------2---2---3---1---4--- 
- -1-------0-------0-------0---1-------0-------0---0---1-------2--- 
PM         .................           .................       . 

- ----------------------------------------------------------------- 
- ----------------------------------------------------------------- 
- ----------------------------------------------------------------- 
- -3--------------------------------------------------------------- 
- -3-------2-------2-----------2---2---2---2-----------2---2---2--- 
- -1-------0-------0-----------0---0---0---0-----------0---0---0--- 
PM         ....................................................... 

- ----------------------------------------------------------------- 
- ----------------------------------------------------------------- 
- ----------------------------------------------------------------- 
- -3---------------------------3---------------6-------5----------- 
- -3-------2-------2-------2---3-------2-------6-------5-------2--- 
- -1-------0-------0-------0---1-------0-------4-------3-------0--- 
PM         .................           .                       . 


Riff 4, Guitar 1 & 2 - 01:10 - 01:32 
- ----------------------------------------------------------------- 
- ----------------------------------------------------------------- 
- ----------------------------------------------------------------- 
- -2---2-2-----2---5-----7-----8-------------------------------3--- 
- -2---2-2-----2---5-----5-----8-------------------------------3--- 
- -0---0-0-----0---3-----5-----6-------------------------------1--- 
- 
- ----------------------------------------------------------------- 
- ----------------------------------------------------------------- 
- -------------------------------------------------3--------------- 
- -2-----------------------------------2---2-2-2---x-----2-----3--- 
- -2-----------------------------------2---2-2-2---1-----2-----3--- 
- -0-----------------------------------0---0-0-0---------0-----1--- 


- ----------------------------------------------------------------- 
- ----------------------------------------------------------------- 
- ----------------------------------------------------------------- 
- -2-----------------------------------------------\\\------------- 
- -2-----------------------------------------------\\\------------- 
- -0-----------------------------------------------\\\------------- 
- 
- ----------------------------------------------------------------- 
- ----------------------------------------------------------------- 
- ----------------------------------------------------------------- 
- -2-------------------------------\\\----------------------------- 
- -2-------------------------------\\\----------------------------- 
- -0-------------------------------\\\----------------------------- 


- ----------------------------------------------------------------- 
- ----------------------------------------------------------------- 
- -------------------------------------------------3--------------- 
- -2---2-2-----2---5-----7-----8-------2---2-2-2---x-----2-----3--- 
- -2---2-2-----2---5-----5-----8-------2---2-2-2---1-----2-----3--- 
- -0---0-0-----0---3-----5-----6-------0---0-0-0---------0-----1--- 
- 
- -12----12-------------------------------------------------------- 
- -15b---15b---15\-------15----11------------------11-------------- 
- ----------------/12------------------9---9-9-9---x-----10----9--- 
- -------------------------------------x---x-x-x---9-----x-----x--- 
- -------------------------------------7---7-7-7---------8-----7--- 
- ----------------------------------------------------------------- 


- ----------------------------------------------------------------- 
- ----------------------------------------------------------------- 
- ----------------------------------------------------------------- 
- -2-----------------------------------------------\\\------------- 
- -2-----------------------------------------------\\\------------- 
- -0-----------------------------------------------\\\------------- 
- 
- ----------------------------------------------------------------- 
- ----------------------------------------------------------------- 
- ----------------------------------------------------------------- 
- -------------------------------------------------\\\------------- 
- -------------------------------------------------\\\------------- 
- -------------------------------------------------\\\------------- 


- ----------------------------------------------------------------- 
- ----------------------------------------------------------------- 
- -------------------------------------------------3--------------- 
- -2---2-2-----2---5-----7-----8-------2---2-2-2---x-----2-----3--- 
- -2---2-2-----2---5-----5-----8-------2---2-2-2---1-----2-----3--- 
- -0---0-0-----0---3-----5-----6-------0---0-0-0---------0-----1--- 
- 
- ----------------------------------------------------------------- 
- ----------------------------------------------------------------- 
- -------------------------------------------------3--------------- 
- -2---2-2-----2---5-----7-----8-------2---2-2-2---x-----2-----3--- 
- -2---2-2-----2---5-----5-----8-------2---2-2-2---1-----2-----3--- 
- -0---0-0-----0---3-----5-----6-------0---0-0-0---------0-----1--- 


- ----------------------------------------------------------------- 
- ----------------------------------------------------------------- 
- ----------------------------------------------------------------- 
- -2-----------------------------------------------\\\------------- 
- -2-----------------------------------------------\\\------------- 
- -0-----------------------------------------------\\\------------- 
- 
- ----------------------------------------------------------------- 
- ----------------------------------------------------------------- 
- ----------------------------------------------------------------- 
- -2-----------------------\\\------------------------------------- 
- -2-----------------------\\\------------------------------------- 
- -0-----------------------\\\------------------------------------- 


- ----------------------------------------------------------------- 
- ----------------------------------------------------------------- 
- -------------------------------------------------3--------------- 
- -2---2-2-----2---5-----7-----8-------2---2-2-2---x-----2-----3--- 
- -2---2-2-----2---5-----5-----8-------2---2-2-2---1-----2-----3--- 
- -0---0-0-----0---3-----5-----6-------0---0-0-0---------0-----1--- 
- 
- ----------------------------------------------------------------- 
- ----------------------------------------------------------------- 
- -------------------------------------------------3--------------- 
- -2---2-2-----2---5-----7-----8-------2---2-2-2---x-----2-----3--- 
- -2---2-2-----2---5-----5-----8-------2---2-2-2---1-----2-----3--- 
- -0---0-0-----0---3-----5-----6-------0---0-0-0---------0-----1--- 


- ----------------------------------------------------------------- 
- ----------------------------------------------------------------- 
- ----------------------------------------------------------------- 
- -2-----------------------------------------------2--------------- 
- -2-------2---2---2---2---2---2---2---2---2---2---2--------------- 
- -0-------0---0---0---0---0---0---0---0---0---0---0--------------- 
PM         ..................................... 
- ----------------------------------------------------------------- 
- ----------------------------------------------------------------- 
- -------------------------------------7--/9---9---9--------------- 
- -2-----------------------------------x---x---x---x--------------- 
- -2-------2---2---2---2---2---2---2---5--/7---7---7--------------- 
- -0-------0---0---0---0---0---0---0------------------------------- 
PM         ......................... 


Riff 3 - 01:32 - 01:55 

Riff 5, Guitar 1 & 2 - 01:55 - 02:55 
- ----------------------------------------------------------------- 
- ----------------------------------------------------------------- 
- -------------------------------------------------------------9--- 
- -2---2---2---3---3---3---5---5---5---6---6---6---------------9--- 
- -2---2---2---3---3---3---3---3---3---6---6---6---0---3---2---7--- 
- -0---0---0---1---1---1---3---3---3---4---4---4---0---3---2------- 
PM                                                 ......... 
- -0--------------------------------------------------------------- 
- -0--------------------------------------------------------------- 
- -9--------------------------------------------------------------- 
- -9--------------------------------------------------------------- 
- -7--------------------------------------------------------------- 
- -0--------------------------------------------------------------- 


- ----------------------------------------------------------------- 
- ----------------------------------------------------------------- 
- ----------------------------------------------------------------- 
- -2---2---2---3---3---3---5---5---5---6---6---6-------8-------8--- 
- -2---2---2---3---3---3---3---3---3---6---6---6-------6-------6--- 
- -0---0---0---1---1---1---3---3---3---4---4---4---0-0-6---0-0-6--- 
PM                                                 ...     ... 
- ----------------------------------------------------------------- 
- ----------------------------------------------------------------- 
- ----------------------------------------------------------------- 
- -----------------------------------------------------8-------8--- 
- -----------------------------------------------------6-------6--- 
- -------------------------------------------------0-0-6---0-0-6--- 
PM                                                 ...     ... 


- ----------------------------------------------------------------- 
- ----------------------------------------------------------------- 
- -------------------------------------------------------------9--- 
- -2---2---2---3---3---3---5---5---5---6---6---6---------------9--- 
- -2---2---2---3---3---3---3---3---3---6---6---6---0---3---2---7--- 
- -0---0---0---1---1---1---3---3---3---4---4---4---0---3---2------- 
PM                                                 ......... 
- ----------------------------------------------------------------- 
- ----------------------------------------------------------------- 
- -9\----------------------------------------------------------9--- 
- -9\----------------------------------------------------------9--- 
- -7\----------------------------------------------0---3---2---7--- 
- -------------------------------------------------0---3---2------- 
PM                                                 ......... 


- ----------------------------------------------------------------- 
- ----------------------------------------------------------------- 
- ----------------------------------------------------------------- 
- -2---2---2---3---3---3---5---5---5---6---6---6-------8-------8--- 
- -2---2---2---3---3---3---3---3---3---6---6---6-------6-------6--- 
- -0---0---0---1---1---1---3---3---3---4---4---4---0-0-6-------6--- 
PM                                                 ... 
- ----------------------------------------------------------------- 
- ----------------------------------------------------------------- 
- ----------------------------------------------------------------- 
- -2-------------------------------\\\-----------------8-------8--- 
- -2-------------------------------\\\-----------------6-------6--- 
- -0-------------------------------\\\-------------0-0-6-------6--- 
PM                                                 ... 


- ----------------------------------------------------------------- 
- ----------------------------------------------------------------- 
- -------------------------------------------------------------9--- 
- -2---2---2---3---3---3---5---5---5---6---6---6---------------9--- 
- -2---2---2---3---3---3---3---3---3---6---6---6---0---3---2---7--- 
- -0---0---0---1---1---1---3---3---3---4---4---4---0---3---2------- 
PM                                                 ......... 
- ----------------------------------------------------------------- 
- ----------------------------------------------------------------- 
- -------------------------------------------------------------9--- 
- -2---2---2---3---3---3---5---5---5---6---6---6---------------9--- 
- -2---2---2---3---3---3---3---3---3---6---6---6---0---3---2---7--- 
- -0---0---0---1---1---1---3---3---3---4---4---4---0---3---2------- 
PM                                                 ......... 


- ----------------------------------------------------------------- 
- ----------------------------------------------------------------- 
- ----------------------------------------------------------------- 
- -2---2---2---3---3---3---5---5---5---6---6---6-------8-------8--- 
- -2---2---2---3---3---3---3---3---3---6---6---6-------6-------6--- 
- -0---0---0---1---1---1---3---3---3---4---4---4---0-0-6---0-0-6--- 
PM                                                 ...     ... 
- ----------------------------------------------------------------- 
- ----------------------------------------------------------------- 
- ----------------------------------------------------------------- 
- -2---2---2---3---3---3---5---5---5---6---6---6-------8-------8--- 
- -2---2---2---3---3---3---3---3---3---6---6---6-------6-------6--- 
- -0---0---0---1---1---1---3---3---3---4---4---4---0-0-6---0-0-6--- 
PM                                                 ...     ... 


- ----------------------------------------------------------------- 
- ----------------------------------------------------------------- 
- -------------------------------------------------------------9--- 
- -2---2---2---3---3---3---5---5---5---6---6---6---------------9--- 
- -2---2---2---3---3---3---3---3---3---6---6---6---0---3---2---7--- 
- -0---0---0---1---1---1---3---3---3---4---4---4---0---3---2------- 
PM                                                 ......... 
- ----------------------------------------------------------------- 
- ----------------------------------------------------------------- 
- -------------------------------------------------------------9--- 
- -2---2---2---3---3---3---5---5---5---6---6---6---------------9--- 
- -2---2---2---3---3---3---3---3---3---6---6---6---0---3---2---7--- 
- -0---0---0---1---1---1---3---3---3---4---4---4---0---3---2------- 
PM                                                 ......... 


- ----------------------------------------------------------------- 
- ----------------------------------------------------------------- 
- ----------------------------------------------------------------- 
- -2---2---2---3---3---3---5---5---5---6---6---6-------8-------8--- 
- -2---2---2---3---3---3---3---3---3---6---6---6-------6-------6--- 
- -0---0---0---1---1---1---3---3---3---4---4---4---0-0-6-------6--- 
PM                                                 ... 
- ----------------------------------------------------------------- 
- ----------------------------------------------------------------- 
- ----------------------------------------------------------------- 
- -2---2---2---3---3---3---5---5---5---6---6---6-------8-------8--- 
- -2---2---2---3---3---3---3---3---3---6---6---6-------6-------6--- 
- -0---0---0---1---1---1---3---3---3---4---4---4---0-0-6-------6--- 
PM                                                 ... 


- ----------------------------------------------------------------- 
- ----------------------------------------------------------------- 
- -------------------------------------------------------------9--- 
- -------------------------------------------------------------9--- 
- -2---2---2---3---3---3---3---3---3---6---6---6---0---3---2---7--- 
- -0---0---0---1---1---1---3---3---3---4---4---4---0---3---2------- 
PM ......................................................... 
- ----------------------------------------------------------------- 
- ----------------------------------------------------------------- 
- -------------------------------------------------------------9--- 
- -------------------------------------------------------------9--- 
- -2---2---2---3---3---3---3---3---3---6---6---6---0---3---2---7--- 
- -0---0---0---1---1---1---3---3---3---4---4---4---0---3---2------- 
PM ......................................................... 


- ----------------------------------------------------------------- 
- ----------------------------------------------------------------- 
- ----------------------------------------------------------------- 
- -----------------------------------------------------8-------8--- 
- -2---2---2---3---3---3---3---3---3---6---6---6-------6-------6--- 
- -0---0---0---1---1---1---3---3---3---4---4---4---0-0-6---0-0-6--- 
PM ...................................................     ... 
- ----------------------------------------------------------------- 
- ----------------------------------------------------------------- 
- ----------------------------------------------------------------- 
- -----------------------------------------------------8-------8--- 
- -2---2---2---3---3---3---3---3---3---6---6---6-------6-------6--- 
- -0---0---0---1---1---1---3---3---3---4---4---4---0-0-6---0-0-6--- 
PM ...................................................     ... 


- ----------------------------------------------------------------- 
- ----------------------------------------------------------------- 
- -------------------------------------------------------------9--- 
- -2---2---2---3---3---3---5---5---5---6---6---6---------------9--- 
- -2---2---2---3---3---3---3---3---3---6---6---6---0---3---2---7--- 
- -0---0---0---1---1---1---3---3---3---4---4---4---0---3---2------- 
PM                                                 ......... 
- ----------------------------------------------------------------- 
- ----------------------------------------------------------------- 
- -------------------------------------------------------------9--- 
- -2---2---2---3---3---3---5---5---5---6---6---6---------------9--- 
- -2---2---2---3---3---3---3---3---3---6---6---6---0---3---2---7--- 
- -0---0---0---1---1---1---3---3---3---4---4---4---0---3---2------- 
PM                                                 ......... 


- ----------------------------------------------------------------- 
- ----------------------------------------------------------------- 
- ----------------------------------------------------------------- 
- -2---2---2---3---3---3---5---5---5---6---6---6-------8-------8--- 
- -2---2---2---3---3---3---3---3---3---6---6---6-------6-------6--- 
- -0---0---0---1---1---1---3---3---3---4---4---4---0-0-6-------6--- 
PM                                                 ... 
- ----------------------------------------------------------------- 
- ----------------------------------------------------------------- 
- ----------------------------------------------------------------- 
- -2---2---2---3---3---3---5---5---5---6---6---6-------8-------8--- 
- -2---2---2---3---3---3---3---3---3---6---6---6-------6-------6--- 
- -0---0---0---1---1---1---3---3---3---4---4---4---0-0-6-------6--- 
PM                                                 ... 


- ----------------------------------------------------------------- 
- ----------------------------------------------------------------- 
- ----------------------------------------------------------------- 
- -2--------------------------------------------------------------- 
- -2--------------------------------------------------------------- 
- -0--------------------------------------------------------------- 
- 
- ----------------------------------------------------------------- 
- ----------------------------------------------------------------- 
- -9--------------------------------------------------------------- 
- -x--------------------------------------------------------------- 
- -7--------------------------------------------------------------- 
- ----------------------------------------------------------------- 


Symbols 

PM... Palm Mute notes with (...) under them 
AP... Alternate Pick notes with (...) under them 
h     Hammer On 
p     Pull Off 
    Harmonic 
/     Slide Up 
\     Slide Down 
x     Dead Note 
b     Bend 
hb    Hold Bend 
pb    Pre-Bend 
r     Release Bend 
(x )  Play Notes x amount of times 
~     Let Ring 
\\\   Pick Slide Down 
///   Pick Slide Up 
/ 3 \ Notes are triplets (3 notes in the space of two) 
w\    Whammy Bar Down 
w/    Whammy Bar Up 
wh    Whammy Bar Hold 
T     Right Hand Tap 
L     Left Hand Tap 

:) 
  

top 5 | stick to your guns
top rock'n roll
Outras músicas do artista letras do(a) Stick To Your Guns
Top cifras »Top artistas »
Petaxxon Comunicação Online
Cifras.com.br - Melhor e mais completo site de cifras e tablaturas do Brasil
Mais de 1 milhão de acordes de músicas cadastradas desde 2003
As informações contidas no nosso site são colaborações de seus usuários e podem conter erros, sendo assim, não nos responsabilizamos sobre nenhuma destas.
close
menos
mais
close
Cor dos acordes:

Cor da letra:

 

save
close
close
 
redimensionar