Cifras e Tablaturas
Stick To Your Guns

Stick To Your Guns

Married To The Noise

Cifras Cancelar Versão de Impressão
cifras

Stick To Your Guns - Married To The Noise

fixar na tela  
Exibindo: vídeo-aula ver clipes redimensionar
  

Riff 1, Guitar 1 & 2 - 00:00 - 00:18 
- ----------------------------------------------------------------- 
- ----------------------------------------------------------------- 
- ----------------------------------------------------------------- 
- -2---3-3-2-----------------------2---3-3-2----------------------- 
- -2---3-3-2-----------------------2---3-3-2----------------------- 
- -0---1-1-0-----------------------0---1-1-0----------------------- 
- 
- -0-------------------------------0------------------------------- 
- -5(x16)--------------------------10(x16)------------------------- 
- ----------------------------------------------------------------- 
- ----------------------------------------------------------------- 
- ----------------------------------------------------------------- 
- ----------------------------------------------------------------- 


- ----------------------------------------------------------------- 
- ----------------------------------------------------------------- 
- ----------------------------------------------------------------- 
- -2---3-3-2-----------------------2---3-3-2-------2---3-3-2------- 
- -2---3-3-2-----------------------2---3-3-2-------2---3-3-2------- 
- -0---1-1-0-----------------------0---1-1-0-------0---1-1-0------- 
- 
- -0--------------------------------------------------------------- 
- -8(x32)---------------------------------------------------------- 
- ----------------------------------------------------------------- 
- ----------------------------------------------------------------- 
- ----------------------------------------------------------------- 
- ----------------------------------------------------------------- 


- ----------------------------------------------------------------- 
- ----------------------------------------------------------------- 
- ----------------------------------------------------------------- 
- -2---3-3-2-------2---3-3-2-------2---3-3-2-------2---3-3-2------- 
- -2---3-3-2-------2---3-3-2-------2---3-3-2-------2---3-3-2------- 
- -0---1-1-0-------0---1-1-0-------0---1-1-0-------0---1-1-0------- 
- 
- -0-------------------------------0------------------------------- 
- -5(x16)--------------------------10(x16)------------------------- 
- ----------------------------------------------------------------- 
- ----------------------------------------------------------------- 
- ----------------------------------------------------------------- 
- ----------------------------------------------------------------- 


- ------------------------------------------------5-------------- 
- ------------------------------------------------5-------------- 
- -------------------------------------------------0--------------- 
- -2---3-3-2-------2---3-3-2-------2---3-3-2----------------------- 
- -2---3-3-2-------2---3-3-2-------2---3-3-2----------------------- 
- -0---1-1-0-------0---1-1-0-------0---1-1-0----------------------- 
- 
- -0--------------------------------------------------------------- 
- -8(x32)---------------------------------------------------------- 
- ----------------------------------------------------------------- 
- ----------------------------------------------------------------- 
- ----------------------------------------------------------------- 
- ----------------------------------------------------------------- 


Riff 2 - 00:18 - 00:36 
- ----------------------------------------------------------------- 
- ----------------------------------------------------------------- 
- ----------------------------------------------------------------- 
- -2---3---2---4---2---3---2---4---2---3---2---4---2---3---2---3333 
- -2---3---2---4---2---3---2---4---2---3---2---4---2---3---2---1111 
- -0---1---0---2---0---1---0---2---0---1---0---2---0---1---0---1111 

- ----------------------------------------------------------------- 
- ----------------------------------------------------------------- 
- ----------------------------------------------------------------- 
- -2---3---2---4---2---3---2---4---2---3---2---4---------------6--- 
- -2---3---2---4---2---3---2---4---2---3---2---4---2---5---4---6--- 
- -0---1---0---2---0---1---0---2---0---1---0---2---0---3---2---4--- 
PM                                                 ......... 

- ----------------------------------------------------------------- 
- ----------------------------------------------------------------- 
- ----------------------------------------------------------------- 
- -------------4---------------4---------------4---------------3--- 
- -2---3---2---4---2---3---2---4---2---3---2---4---2---3---2---1--- 
- -0---1---0---2---0---1---0---2---0---1---0---2---0---1---0---1--- 
PM .........       .........       .........       ......... 

- ----------------------------------------------------------------- 
- ----------------------------------------------------------------- 
- -----------------------------------------------6----------------- 
- -------------4---------------4-----5-----4-----6-----5---6---3--- 
- -2---3---2---4---2---3---2---4-----5-----4-----4-----5---6---3--- 
- -0---1---0---2---0---1---0---2---0-3---0-2---0-----0-3---4---1--- 
PM .........       .........       .     .     .     . 


Riff 3, Guitar 1 & 2 - 00:36 - 00:41 
- ----------------------------------------------------------------- 
- ----------------------------------------------------------------- 
- ----------------------------------------------------------------- 
- -------------------------------------------------7---7---5---4--- 
- -3-3-3-3-3-3-3-3-3-3-3-3-3-3-3-3-5-5-5-5-5-5-5-5-5---5---5---5--- 
- -3-3-3-3-3-3-3-3-3-3-3-3-3-3-3-3-5-5-5-5-5-5-5-5-5---5---3---2--- 
PM ............................................... 
- ----------------------------------------------------------------- 
- -7-7-7-7-7-7-7-7-7-7-7-7-7-7-7-7-7-7-7-7-7-7-7-7----------------- 
- -7-7-7-7-7-7-7-7-7-7-7-7-7-7-7-7-7-7-7-7-7-7-7-7----------------- 
- -5-5-5-5-5-5-5-5-5-5-5-5-5-5-5-5-5-5-5-5-5-5-5-5-7---7---5---4--- 
- -------------------------------------------------5---5---5---5--- 
- -------------------------------------------------5---5---3---2--- 


Riff 4a - 00:41 - 00:59 - x2 
- ----------------------------------------------------------------- 
- ----------------------------------------------------------------- 
- ---------------------------------7---7---7---7---7---7---7---7--- 
- -2---2---2---2---2---2---2---2---7---7---7---7---7---7---7---7--- 
- -2---2---2---2---2---2---2---2---5---5---5---5---5---5---5---5--- 
- -0---0---0---0---0---0---0---0----------------------------------- 

- ----------------------------------------------------------------- 
- ----------------------------------------------------------------- 
- -5---5---5---5---5---5---5---5----------------------------------- 
- -5---5---5---5---5---5---5---5---5---5---5---7---7---7---5---4--- 
- -3---3---3---3---3---3---3---3---3---3---3---5---5---5---5---4--- 
- ---------------------------------3---3---3---5---5---5---3---2--- 


Riff 4b, Guitar 1 & 2 - 00:41 - 00:59 - x2 
- ----------------------------------------------------------------- 
- ----------------------------------------------------------------- 
- -12--12--12--11--11--9---9---9---14--14--14--11--11--7---7---7--- 
- -x---x---x---x---x---x---x---x---x---x---x---x---x---x---x---x--- 
- -10--10--10--9---9---7---7---7---12--12--12--9---9---5---5---5--- 
- ----------------------------------------------------------------- 


- ----------------------------------------------------------------- 
- ----------------------------------------------------------------- 
- -12--12--12--11--11--9---9---9---9---9---9---11--11--11--12--11-- 
- -x---x---x---x---x---x---x---x---x---x---x---x---x---x---x---x--- 
- -10--10--10--9---9---7---7---7---7---7---7---9---9---9---10--9--- 
- ----------------------------------------------------------------- 
- 
- ----------------------------------------------------------------- 
- -12--12--12--10--10--8---8---8---12--12--12--10--10--10--12--10-- 
- -x---x---x---x---x---x---x---x---x---x---x---x---x---x---x---x--- 
- -9---9---9---7---7---5---5---5---9---9---9---7---7---7---9---7--- 
- ----------------------------------------------------------------- 
- ----------------------------------------------------------------- 


Riff 5, Guitar 1 & 2 - 00:59 - 01:22 
- ----------------------------------------------------------------- 
- ----------------------------------------------------------------- 
- ----------------------------------------------------------------- 
- -------------4---------------4---------------4---------------6--- 
- -2---3---2---4---2---3---2---4---2---3---2---4---2---5---4---6--- 
- -0---1---0---2---0---1---0---2---0---1---0---2---0---3---2---4--- 
PM .........       .........       .........       ......... 
- 3-------------------------------------------------------------- 
- 3-------------------------------------------------------------- 
- 3-------------------------------------------------------------- 
- -------------------------------------------------\\\------------- 
- -------------------------------------------------\\\------------- 
- -------------------------------------------------\\\------------- 


- ----------------------------------------------------------------- 
- ----------------------------------------------------------------- 
- ----------------------------------------------------------------- 
- -------------4---------------4---------------4---------------3--- 
- -2---3---2---4---2---3---2---4---2---3---2---4---2---3---2---1--- 
- -0---1---0---2---0---1---0---2---0---1---0---2---0---1---0---1--- 
PM .........       .........       .........       ......... 
- ----------------------------------------------------------------- 
- ----------------------------------------------------------------- 
- ----------------------------------------------------------------- 
- -2-----------3-----------5-----------2-----------3-------7------- 
- -2-----------3-----------5-----------2-----------3-------5------- 
- -0-----------1-----------5-----------0-----------1-------5------- 


- ----------------------------------------------------------------- 
- ----------------------------------------------------------------- 
- ----------------------------------------------------------------- 
- -------------4---------------4---------------4---------------6--- 
- -2---3---2---4---2---3---2---4---2---3---2---4---2---5---4---6--- 
- -0---1---0---2---0---1---0---2---0---1---0---2---0---3---2---4--- 
PM .........       .........       .........       ......... 
- ----------------------------------------------------------------- 
- ----------------------------------------------------------------- 
- ----------------------------------------------------------------- 
- -2-----------3-----------5-------------------4---------------6--- 
- -2-----------3-----------5-------2---3---2---4---2---5---4---6--- 
- -0-----------1-----------5-------0---1---0---2---0---3---2---4--- 
PM                                 .........       ......... 


- ----------------------------------------------------------------- 
- ----------------------------------------------------------------- 
- ----------------------------------------------------------------- 
- -------------4---------------4---------------4---------------3--- 
- -2---3---2---4---2---3---2---4---2---3---2---4---2---3---2---1--- 
- -0---1---0---2---0---1---0---2---0---1---0---2---0---1---0---1--- 
PM .........       .........       .........       ......... 
- ----------------------------------------------------------------- 
- ----------------------------------------------------------------- 
- ----------------------------------------------------------------- 
- -2-----------3-----------5-----------2-----------3-------7------- 
- -2-----------3-----------5-----------2-----------3-------5------- 
- -0-----------1-----------5-----------0-----------1-------5------- 


- ----------------------------------------------------------------- 
- ----------------------------------------------------------------- 
- -----------------------------------------------6----------------- 
- -2-----------3-----------5---------5-----4-----6-----5---6------- 
- -2-----------3-----------5---------5-----4-----4-----5---6------- 
- -0-----------1-----------5-------0-3---0-2---0-----0-3---4------- 
PM                                 .     .     .     . 
- ----------------------------------------------------------------- 
- ----------------------------------------------------------------- 
- -----------------------------------------------6----------------- 
- -2-----------3-----------5---------5-----4-----6-----5---6------- 
- -2-----------3-----------5---------5-----4-----4-----5---6------- 
- -0-----------1-----------5-------0-3---0-2---0-----0-3---4------- 
PM                                 .     .     .     . 


Riff 4a - 01:22 - 01:40 - x2 
Riff 4b, Guitar 1 & 2 - 01:22 - 01:40 - x2 


Riff 6a - 01:40 - 01:49 
- ----------------------------------------------------------------- 
- ----------------------------------------------------------------- 
- ---------------------------------2---2---2---2---2---2---2---2--- 
- -2---2---2---2---2---2---2---2---2---2---2---2---2---2---2---2--- 
- -2---2---2---2---2---2---2---2---0---0---0---0---0---0---0---0--- 
- -0---0---0---0---0---0---0---0----------------------------------- 

- ----------------------------------------------------------------- 
- ----------------------------------------------------------------- 
- -5---5---5---5---5---5---5---5---4---4---4---7---7---7----------- 
- -5---5---5---5---5---5---5---5---4---4---4---7---7---7---5---4--- 
- -3---3---3---3---3---3---3---3---2---2---2---5---5---5---5---4--- 
- ---------------------------------------------------------3---2--- 


Riff 6b, Guitar 1 & 2 - 01:40 - 01:49 
- ----------------------------------------------------------------- 
- ----------------------------------------------------------------- 
- -9---9---9---9---9---9---9---9---14--14--14--14--14--14--14--14-- 
- -x---x---x---x---x---x---x---x---x---x---x---x---x---x---x---x--- 
- -7---7---7---7---7---7---7---7---12--12--12--12--12--12--12--12-- 
- ----------------------------------------------------------------- 
- 
- ----------------------------------------------------------------- 
- -12--12--12--10--10--10--8---8---13--13--13--12--12--12--10--10-- 
- -x---x---x---x---x---x---x---x---x---x---x---x---x---x---x---x--- 
- -9---9---9---7---7---7---5---5---10--10--10--9---9---9---7---7--- 
- ----------------------------------------------------------------- 
- ----------------------------------------------------------------- 


- ----------------------------------------------------------------- 
- ----------------------------------------------------------------- 
- -16--16--16--16--16--16--16--16--12--12--12--14--14--14--12--11-- 
- -x---x---x---x---x---x---x---x---x---x---x---x---x---x---x---x--- 
- -14--14--14--14--14--14--14--14--10--10--10--12--12--12--10--9--- 
- ----------------------------------------------------------------- 
- 
- ----------------------------------------------------------------- 
- -12--12--12--12--12--12--12--12--8---8---8---10--10--10--12--10-- 
- -x---x---x---x---x---x---x---x---x---x---x---x---x---x---x---x--- 
- -9---9---9---9---9---9---9---9---5---5---5---7---7---7---9---7--- 
- ----------------------------------------------------------------- 
- ----------------------------------------------------------------- 


Riff 4a - 01:49 - 01:58 
Riff 4b, Guitar 1 & 2 - 01:49 - 01:58 


Riff 7, Guitar 1 & 2 - 01:58 - 02:19 
- ----------------------------------------------------------------- 
- -7-7-7-7-7-7-7-7-7-7-7-7-7-7-7-7-7-7-7-7-7-7-7-7----------------- 
- -7-7-7-7-7-7-7-7-7-7-7-7-7-7-7-7-7-7-7-7-7-7-7-7-9---9---9---9--- 
- -5-5-5-5-5-5-5-5-5-5-5-5-5-5-5-5-5-5-5-5-5-5-5-5-x---x---x---x--- 
- -------------------------------------------------7---7---7---7--- 
- ----------------------------------------------------------------- 
- 
- ----------------------------------------------------------------- 
- ----------------------------------------------------------------- 
- ----------------------------------------------------------------- 
- -------------------------------------------------2---2---2---2--- 
- -------------------------------------------------2---2---2---2--- 
- -------------------------------------------------0---0---0---0--- 


- ----------------------------------------------------------------- 
- -7-7-7-7-7-7-7-7-7-7-7-7-7-7-7-7-7-7-7-7-7-7-7-7----------------- 
- -7-7-7-7-7-7-7-7-7-7-7-7-7-7-7-7-7-7-7-7-7-7-7-7-9---9---9---9--- 
- -5-5-5-5-5-5-5-5-5-5-5-5-5-5-5-5-5-5-5-5-5-5-5-5-x---x---x---x--- 
- -------------------------------------------------7---7---7---7--- 
- ----------------------------------------------------------------- 
- 
- ----------------------------------------------------------------- 
- ----------------------------------------------------------------- 
- ----------------------------------------------------------------- 
- -------------------------------------------------2---2---2---2--- 
- -------------------------------------------------2---2---2---2--- 
- -------------------------------------------------0---0---0---0--- 


- ----------------------------------------------------------------- 
- -7-7-7-7-7-7-7-7-7-7-7-7-7-7-7-7-7-7-7-7-7-7-7-7----------------- 
- -7-7-7-7-7-7-7-7-7-7-7-7-7-7-7-7-7-7-7-7-7-7-7-7-9---9---9---9--- 
- -5-5-5-5-5-5-5-5-5-5-5-5-5-5-5-5-5-5-5-5-5-5-5-5-x---x---x---x--- 
- -------------------------------------------------7---7---7---7--- 
- ----------------------------------------------------------------- 
- 
- ----------------------------------------------------------------- 
- ----------------------------------------------------------------- 
- ----------------------------------------------------------------- 
- -------------------------------------------------2---2---2---2--- 
- -3-3-3-3-3-3-3-3-3-3-3-3-3-3-3-3-3-3-3-3-3-3-3-3-2---2---2---2--- 
- -3-3-3-3-3-3-3-3-3-3-3-3-3-3-3-3-3-3-3-3-3-3-3-3-0---0---0---0--- 
PM ............................................... 


- ----------------------------------------------------------------- 
- -7-7-7-7-7-7-7-7-7-7-7-7-7-7-7-7-7-7-7-7-7-7-7-7----------------- 
- -7-7-7-7-7-7-7-7-7-7-7-7-7-7-7-7-7-7-7-7-7-7-7-7-9---9---9---9--- 
- -5-5-5-5-5-5-5-5-5-5-5-5-5-5-5-5-5-5-5-5-5-5-5-5-x---x---x---x--- 
- -------------------------------------------------7---7---7---7--- 
- ----------------------------------------------------------------- 
- 
- ----------------------------------------------------------------- 
- ----------------------------------------------------------------- 
- ----------------------------------------------------------------- 
- -5-5-5-5---5-5-5-5-5---5-5-5-5-5-----7---7---7---7---7---7---7--- 
- -3-3-3-3---3-3-3-3-3---3-3-3-3-3-3---5---5---5---5---5---5---5--- 
- -3-3-3-3---3-3-3-3-3---3-3-3-3-3-3---5---5---5---5---5---5---5--- 
PM                                 . 


- --------------------------------- 
- --------------------------------- 
- -9-9-9-9-9-9-9-9-7-7-7-7-12--11-- 
- -x-x-x-x-x-x-x-x-x-x-x-x-x---x--- 
- -7-7-7-7-7-7-7-7-5-5-5-5-10--9--- 
- --------------------------------- 
- 
- --------------------------------- 
- --------------------------------- 
- --------------------------------- 
- -------------------------5---4--- 
- -------------------------5---4--- 
- -------------------------3---2--- 


Riff 4a - 02:19 - 02:37 - x2 
Riff 4b, Guitar 1 & 2 - 02:19 - 02:37 - x2 


Riff 8a, Guitar 1 & 2 - 02:37 - 02:47 
- ----------------------------------------------------------------- 
- ----------------------------------------------------------------- 
- ---------------------------------2---2---2---2------------------- 
- -2---2---2---2---2---2---2---2---2---2---2---2------------------- 
- -2---2---2---2---2---2---2---2---0---0---0---0------------------- 
- -0---0---0---0---0---0---0---0----------------------------------- 

- ----------------------------------------------------------------- 
- ----------------------------------------------------------------- 
- -5---5---5---5---5---5---5---5---4---4---4---7---7---7----------- 
- -5---5---5---5---5---5---5---5---4---4---4---7---7---7---5---4--- 
- -3---3---3---3---3---3---3---3---2---2---2---5---5---5---5---4--- 
- ---------------------------------------------------------3---2--- 


Riff 8b, Guitar 1 & 2 - 02:37 - 02:47 
- ----------------------------------------------------------------- 
- ----------------------------------------------------------------- 
- -9---9---9---9---9---9---9---9---14--14--14--14------------------ 
- -x---x---x---x---x---x---x---x---x---x---x---x------------------- 
- -7---7---7---7---7---7---7---7---12--12--12--12------------------ 
- ----------------------------------------------------------------- 
- 
- ----------------------------------------------------------------- 
- -12--12--12--10--10--10--8---8---13--13--13--12------------------ 
- -x---x---x---x---x---x---x---x---x---x---x---x------------------- 
- -9---9---9---7---7---7---5---5---10--10--10--9------------------- 
- ----------------------------------------------------------------- 
- ----------------------------------------------------------------- 


- ----------------------------------------------------------------- 
- ----------------------------------------------------------------- 
- -16--16--16--16--16--16--16--16--12--12--12--14--14--14--12--11-- 
- -x---x---x---x---x---x---x---x---x---x---x---x---x---x---x---x--- 
- -14--14--14--14--14--14--14--14--10--10--10--12--12--12--10--9--- 
- ----------------------------------------------------------------- 
- 
- ----------------------------------------------------------------- 
- -12--12--12--12--12--12--12--12--8---8---8---10--10--10--12--10-- 
- -x---x---x---x---x---x---x---x---x---x---x---x---x---x---x---x--- 
- -9---9---9---9---9---9---9---9---5---5---5---7---7---7---9---7--- 
- ----------------------------------------------------------------- 
- ----------------------------------------------------------------- 


Riff 4a - 02:47 - 02:56 
Riff 4b, Guitar 1 & 2 - 02:47 - 02:56 


Riff 9, Guitar 1 & 2 - 02:56 - 03:05 
- ----------------------------------------------------------------- 
- ----------------------------------------------------------------- 
- ----------------------------------------------------------------- 
- -2---3-3-2-----------------------2---3-3-2----------------------- 
- -2---3-3-2-----------------------2---3-3-2----------------------- 
- -0---1-1-0-----------------------0---1-1-0----------------------- 
- 
- -0-------------------------------0------------------------------- 
- -5(x16)--------------------------10(x16)------------------------- 
- ----------------------------------------------------------------- 
- ----------------------------------------------------------------- 
- ----------------------------------------------------------------- 
- ----------------------------------------------------------------- 


- ----------------------------------------------------------------- 
- ----------------------------------------------------------------- 
- ------------------------------------------2-------------------- 
- -2---3-3-2-----------------------2---3-3-2-------2---3-3--------- 
- -2---3-3-2-----------------------2---3-3-2-------2---3-3-2-2-2-2- 
- -0---1-1-0-----------------------0---1-1-0-------0---1-1-0-0-0-0- 
PM                                                         ....... 
- -0-----------------------------------------------0--------------- 
- -8(x24)------------------------------------------5(x8)----------- 
- ----------------------------------------------------------------- 
- ----------------------------------------------------------------- 
- ----------------------------------------------------------------- 
- -----------------------------------------------------------------  
  

top 5 | stick to your guns
top rock'n roll
Outras músicas do artista letras do(a) Stick To Your Guns
Top cifras »Top artistas »
Petaxxon Comunicação Online
Cifras.com.br - Melhor e mais completo site de cifras e tablaturas do Brasil
Mais de 1 milhão de acordes de músicas cadastradas desde 2003
As informações contidas no nosso site são colaborações de seus usuários e podem conter erros, sendo assim, não nos responsabilizamos sobre nenhuma destas.
close
menos
mais
close
Cor dos acordes:

Cor da letra:

 

save
close
close
 
redimensionar