Cifras e Tablaturas
Sting

Sting

50000

Cifras Cancelar Versão de Impressão
cifras

Sting - 50000

fixar na tela  
Exibindo: vídeo-aula ver clipes redimensionar

Tom:

B

ver outros tons
  
Intro/Chorus 

  A                  D 
e|0-0-0-0-0-0-0-0-|0-0-0-0-0-0-0-0-| 
B|5-5-5-5-5-5-5-5-|5-5-5-5-5-5-5-5-| 
G|4-4-4-4-4-4-4-4-|4-2-2-2-2-2-2-2-| 
D|2-2-2-2-2-2-2-2-|2-0-0-0-0-0-0-0-| 
A|----------------|----------------| 
E|----------------|----------------| 
  1 & 2 & 3 & 4 &  1 & 2 & 3 & 4 & 


verse 1 

e|----------------|----------------|----------------|----------------| 
B|---5------------|---5------------|---1------------|---0------------| 
G|5---------------|4---------------|0---------------|0---------------| 
D|----------------|----------------|----------------|------------2---|    
A|----------------|----------------|----------------|----------------| 
E|----------------|----------------|----------------|----------------|(x2) 
  1 ; 2 ; 3 ; 4 ;  1 ; 2 ; 3 ; 4 ;  1 ; 2 ; 3 ; 4 ;  1 ; 2 ; 3 ; 4 ; 

e|8--------------|5----------------|----------------|----------------| 
B|----------------|----------------|----------------|----------------| 
G|----------------|----------------|------2h4-------|----------------| 
D|----------------|----------------|------2------2p0|h2--------------| 
A|----------------|----------------|----------------|----------------| 
E|----------------|----------------|----------------|----------------|  
  1 ; 2 ; 3 ; 4 ;  1 ; 2 ; 3 ; 4 ;  1 ; 2 ; 3 ; 4 ;  1 ; 2 ; 3 ; 4 ; 

e|----------------|----------------| 
B|--3--3--3--3--3-|--3--3--3--3--3-| 
G|0--0--0--0--0---|0--0--0--0--0---| 
D|----------------|----------------| 
A|----------------|----------------| 
E|----------------|----------------| 
  1 & 2 & 3 & 4 &  1 & 2 & 3 & 4 &  


Chorus 

  A                  D 
e|0-0-0-0-0-0-0-0-|0-0-0-0-0-0-0-0-| 
B|5-5-5-5-5-5-5-5-|5-5-5-5-5-5-5-5-| 
G|4-4-4-4-4-4-4-4-|4-2-2-2-2-2-2-2-| 
D|2-2-2-2-2-2-2-2-|2-0-0-0-0-0-0-0-|  
A|----------------|----------------| 
E|----------------|----------------|(x4) 
  1 & 2 & 3 & 4 &  1 & 2 & 3 & 4 & 


verse 2 

e|----------------|----------------|----------------|----------------| 
B|---5------------|---5------------|---1------------|---0------------| 
G|5---------------|4---------------|0---------------|0---------------| 
D|----------------|----------------|----------------|------------2---|    
A|----------------|----------------|----------------|----------------| 
E|----------------|----------------|----------------|----------------|(x2) 
  1 ; 2 ; 3 ; 4 ;  1 ; 2 ; 3 ; 4 ;  1 ; 2 ; 3 ; 4 ;  1 ; 2 ; 3 ; 4 ; 

e|----------------|----------------|----------------|----------------| 
B|8---------------|5---------------|----------------|----------------| 
G|----------------|----------------|7---------------|4-----2h4-------| 
D|----------------|----------------|----------------|----------2-----| 
A|----------------|----------------|----------------|----------------| 
E|----------------|----------------|----------------|----------------| 
  1 ; 2 ; 3 ; 4 ;  1 ; 2 ; 3 ; 4 ;  1 ; 2 ; 3 ; 4 ;  1 ; 2 ; 3 ; 4 ; 

e|----------------|----------------| 
B|--3--3--3--3--3-|--3--3--3--3--3-| 
G|0--0--0--0--0---|0--0--0--0--0---| 
D|----------------|----------------| 
A|----------------|----------------| 
E|----------------|----------------| 
  1 & 2 & 3 & 4 &  1 & 2 & 3 & 4 &  


Chorus 

  A                  D 
e|0-0-0-0-0-0-0-0-|0-0-0-0-0-0-0-0-| 
B|5-5-5-5-5-5-5-5-|5-5-5-5-5-5-5-5-| 
G|4-4-4-4-4-4-4-4-|4-2-2-2-2-2-2-2-| 
D|2-2-2-2-2-2-2-2-|2-0-0-0-0-0-0-0-|  
A|----------------|----------------| 
E|----------------|----------------|(x4) 
  1 & 2 & 3 & 4 &  1 & 2 & 3 & 4 & 


verse 3 
(the one where the guitar fades out) 

e|----------------|----------------|----------------|----------------| 
B|---5------------|---5------------|---1------------|---0------------| 
G|5---------------|4---------------|0---------------|0---------------| 
D|----------------|----------------|----------------|------------2---|    
A|----------------|----------------|----------------|----------------| 
E|----------------|----------------|----------------|----------------|(x4) 
  1 ; 2 ; 3 ; 4 ;  1 ; 2 ; 3 ; 4 ;  1 ; 2 ; 3 ; 4 ;  1 ; 2 ; 3 ; 4 ; 


e|----------------|----------------|----------------|----------------| 
B|----------------|----------------|----------------|--------5---5---| 
G|----------------|----------------|----------------|--------4---4---| 
D|----------------|----------------|----------------|--------2-0-2---|   
A|----------------|----------------|----------------|----------------| 
E|----------------|----------------|----------------|----------------| 
  1 ; 2 ; 3 ; 4 ;  1 ; 2 ; 3 ; 4 ;  1 ; 2 ; 3 ; 4 ;  1 ; 2 ; 3 ; 4 ; 


e|----------------|----------------|----------------|----------------| 
B|----------------|----------------|----------------|----------------| 
G|----------------|----------------|----------------|----------------| 
D|0-2-------------|-----5----------|s2--------------|-----0h2--------|   
A|----------------|----------------|----------------|--------0----0h2| 
E|----------------|----------------|----------------|----------------| 
  1 ; 2 ; 3 ; 4 ;  1 ; 2 ; 3 ; 4 ;  1 ; 2 ; 3 ; 4 ;  1 ; 2 ; 3 ; 4 ; 

e|----------------|----------------| 
B|----------------|---3---3---3--3-| 
G|----------------|0----0---0---0--| 
D|----------------|----------------| 
A|----------------|----------------| 
E|0---------------|----------------| 
  1 ; 2 ; 3 ; 4 ;  1 ; 2 ; 3 ; 4 ;  1 ; 2 ; 3 ; 4 ;  1 ; 2 ; 3 ; 4 ; 


Chorus 

  A                  D 
e|0-0-0-0-0-0-0-0-|0-0-0-0-0-0-0-0-| 
B|5-5-5-5-5-5-5-5-|5-5-5-5-5-5-5-5-| 
G|4-4-4-4-4-4-4-4-|4-2-2-2-2-2-2-2-| 
D|2-2-2-2-2-2-2-2-|2-0-0-0-0-0-0-0-|  
A|----------------|----------------| 
E|----------------|----------------|(x4) 
1 & 2 & 3 & 4 &  1 & 2 & 3 & 4 & 

Pseudo Ending Chord (From what I can tell) 

e|----------------| 
B|----------------| 
G|2---------------| 
D|2---------------| 
A|4---------------| 
E|----------------| 

Chorus/Fade 



************************************ 

| h  Hammer-on 
| p  Pull-off 
| s  Slide 

************************************ 
  

cifra enviadasem correções
enviado porenviada por:robepoiel
top 5 | sting
top pop music
Outras músicas do artista letras do(a) Sting
Top cifras »Top artistas »
Petaxxon Comunicação Online
Cifras.com.br - Melhor e mais completo site de cifras e tablaturas do Brasil
Mais de 1 milhão de acordes de músicas cadastradas desde 2003
As informações contidas no nosso site são colaborações de seus usuários e podem conter erros, sendo assim, não nos responsabilizamos sobre nenhuma destas.
close
menos
mais
close
Cor dos acordes:

Cor da letra:

 

save
close
close
 
redimensionar