Cifras e Tablaturas
Stone Sour

Stone Sour

Somebody Stole My Eyes

Cifras Cancelar Versão de Impressão
cifras

Stone Sour - Somebody Stole My Eyes

fixar na tela  
Exibindo: vídeo-aula ver clipes redimensionar
  
Intro 
(0:00 - 0:29) 
Guitar 1 (Electric) (0:15 - 0:29) (Riff 1) 
C#|---------------------------------|----------------------------|---------------------------------| 
G#|---------------------------------|----------------------------|---------------------------------| 
 E|---------------------------------|----------------------------|---------------------------------| 
 B|---------------------------------|----------------------------|---------------------------------| 
F#|---------------------------------|----------------------------|---------------------------------| 
C#|-0h2-2-2-2-2-2-2-0h2-2-2-2-2-2-2-|-0h2-2-2-2-2-2-2-0h2h3--5-3-|-0h2-2-2-2-2-2-2-0h2-2-2-2-2-2-2-| 
        pm. . . . .     pm. . . . .       pm. . . . .                  pm. . . . .     pm. . . . . 

C#|----------------------------|---------------------------------|----------------------------| 
G#|----------------------------|---------------------------------|----------------------------| 
 E|----------------------------|---------------------------------|----------------------------| 
 B|----------------------------|---------------------------------|----------------------------| 
F#|----------------------------|---------------------------------|----------------------------| 
C#|-2h3p2p0-2h3p2p0-0h2h3--5-3-|-0h2-2-2-2-2-2-2-0h2-2-2-2-2-2-2-|-0h2-2-2-2-2-2-2-0h2h3--5-3-| 
                                     pm. . . . .     pm. . . . .       pm. . . . .             

C#|---------------------------------|----------------------------| 
G#|---------------------------------|----------------------------| 
 E|---------------------------------|----------------------------| 
 B|---------------------------------|----------------------------| 
F#|---------------------------------|----------------------------| 
C#|-0h2-2-2-2-2-2-2-0h2-2-2-2-2-2-2-|-2h3p2p0-2h3p2p0-0h2h3--5-3-| 
        pm. . . . .     pm. . . . .        

verse 1 
(0:29 - 0:43) 
Guitar 1 (Electric) (0:29 - 0:43) (Riff 2) 
C#|-------------------------------------------|---------------------------------| 
G#|-------------------------------------------|---------------------------------| 
 E|-------------------------------------------|---------------------------------| 
 B|-------------------------------------------|---------------------------------| 
F#|-------------------------------------------|---------------------------------| 
C#|-0h2-2-2-2-2-2-2-0h2-2-2-2------0h2h3--5-3-|-0h2-2-2-2-2-2-2-0h2-2-2-2-2-2-2-| 
        pm. . . . .     pm.                         pm. . . . .     pm. . . . . 

C#|----------------------------|---------------------------------|----------------------------| 
G#|----------------------------|---------------------------------|----------------------------| 
 E|----------------------------|---------------------------------|----------------------------| 
 B|----------------------------|---------------------------------|----------------------------| 
F#|----------------------------|---------------------------------|----------------------------| 
C#|-0h2-2-2-2-2-2-2-0h2h3--5-3-|-0h2-2-2-2-2-2-2-3p2-2-2-2-2-2-2-|-0h2-2-2-2-2-2-2-0h2h3--5-3-| 
        pm. . . . .                  pm. . . . .     pm. . . . .       pm. . . . .             

C#|---------------------------------|----------------------------| 
G#|---------------------------------|----------------------------| 
 E|---------------------------------|----------------------------| 
 B|---------------------------------|----------------------------| 
F#|---------------------------------|----------------------------| 
C#|-0h2-2-2-2-2-2-2-3p2-2-2-2-2-2-2-|-2h3p2p0-2h3p2p0-0h2h3--5-3-| 
        pm. . . . .     pm. . . . . 

Pre-Chorus 1 
(0:44 - 0:51) 
Guitar 1 (Electric) (0:44 - 0:51) (Riff 3) 
    Bb   B                                 Bb   B     Ab 
C#|--------------------------------------|-----------------------------| 
G#|--------------------------------------|-----------------------------| 
 E|-6--x-7-7--7--------------------------|-6--x-7-7-x-4-4--4-4-4-4-4-4-| 
 B|-6--x-7-7--7--------------------------|-6--x-7-7-x-4-4--4-4-4-4-4-4-| 
F#|-4--x-5-5--5--------------------------|-4--x-5-5-x-2-2--2-2-2-2-2-2-| 
C#|--------------0h2-2-2--0h2-2-2--0h2-2-|-----------------------------| 
                                                           pm. . . . . 
*DROP C# VARIATION* 
    Bb   B                                 Bb   B     Ab 
D#|--------------------------------------|-----------------------------| 
A#|--------------------------------------|-----------------------------| 
F#|-4--x-5-5--5--------------------------|-4--x-5-5-x-2-2--2-2-2-2-2-2-| 
C#|-4--x-5-5--5--------------------------|-4--x-5-5-x-2-2--2-2-2-2-2-2-| 
G#|-2--x-3-3--3--------------------------|-2--x-3-3-x-0-0--0-0-0-0-0-0-| 
C#|--------------0h2-2-2--0h2-2-2--0h2-2-|-----------------------------| 
                                                           pm. . . . . 
verse 2 
(0:51 - 1:12) 
Guitar 1 (Electric) (0:51 - 1:12) (Riff 4) 
C#|---------------------------------|----------------------------|---------------------------------| 
G#|---------------------------------|----------------------------|---------------------------------| 
 E|---------------------------------|----------------------------|---------------------------------| 
 B|---------------------------------|----------------------------|---------------------------------| 
F#|---------------------------------|----------------------------|---------------------------------| 
C#|-0h2-2-2-2-2-2-2-0h2-2-2-2-2-2-2-|-0h2-2-2-2-2-2-2-0h2h3--5-3-|-0h2-2-2-2-2-2-2-0h2-2-2-2-2-2-2-| 
        pm. . . . .     pm. . . . .       pm. . . . .                  pm. . . . .     pm. . . . . 

C#|----------------------------|------------------------------|----------------------------| 
G#|----------------------------|------------------------------|----------------------------| 
 E|----------------------------|------------------------------|----------------------------| 
 B|----------------------------|------------------------------|----------------------------| 
F#|----------------------------|------------------------------|----------------------------| 
C#|-2h3p2p0-2h3p2p0-0h2h3--5-3-|-0h2-2-2---2-2--0h2-2-2---2-2-|-0h2-2-2---2-2-2-0h2h3--5-3-| 
                                   
C#|------------------------------|----------------------------|------------------------------| 
G#|------------------------------|----------------------------|------------------------------| 
 E|------------------------------|----------------------------|------------------------------| 
 B|------------------------------|----------------------------|------------------------------| 
F#|------------------------------|----------------------------|------------------------------| 
C#|-0h2-2-2---2-2--3p2-2-2---2-2-|-0h2-2-2---2-2-2-0h2h3--5-3-|-0h2-2-2---2-2--3p2-2-2---2-2-| 

C#|----------------------------| 
G#|----------------------------| 
 E|----------------------------| 
 B|----------------------------| 
F#|----------------------------| 
C#|-2h3p2p0-2h3p2p0-0h2h3--5-3-| 


Pre-Chorus 2 
(1:12 - 1:26) 
Guitar 1 (Electric) (1:12 - 1:26) (Riff 5) 
    Bb   B                                 Bb   B      
C#|--------------------------------------|--------------------------------------| 
G#|--------------------------------------|--------------------------------------| 
 E|-6--x-7-7--7--------------------------|-6--x-7-7--7--------------------------| 
 B|-6--x-7-7--7--------------------------|-6--x-7-7--7--------------------------| 
F#|-4--x-5-5--5--------------------------|-4--x-5-5--5--------------------------| 
C#|--------------0h2-2-2--0h2-2-2--0h2-2-|--------------0h2-2-2--0h2-2-2--0h2-2-| 
                                                            
    Bb   B      Ab     Eb      Bb     B      Ab 
C#|--------------------------|--------------------------------| 
G#|--------------------------|--------------------------------| 
 E|-6--x-7-7-x--4-4-x--------|-6-6-x--7-7-x--4-4--4-4-4-4-4-4-| 
 B|-6--x-7-7-x--4-4-x--4-4-x-|-6-6-x--7-7-x--4-4--4-4-4-4-4-4-| 
F#|-4--x-5-5-x--2-2-x--4-4-x-|-4-4-x--5-5-x--2-2--2-2-2-2-2-2-| 
C#|--------------------2-2-x-|--------------------------------| 
                                                  pm. . . . . 
*DROP C# VARIATION* 
    Bb   B                                 Bb   B      
D#|--------------------------------------|--------------------------------------| 
A#|--------------------------------------|--------------------------------------| 
F#|-4--x-5-5--5--------------------------|-4--x-5-5--5--------------------------| 
C#|-4--x-5-5--5--------------------------|-4--x-5-5--5--------------------------| 
G#|-2--x-3-3--3--------------------------|-2--x-3-3--3--------------------------| 
C#|--------------0h2-2-2--0h2-2-2--0h2-2-|--------------0h2-2-2--0h2-2-2--0h2-2-| 
                                                            
    Bb   B      Ab     Eb      Bb     B      Ab 
D#|--------------------------|--------------------------------| 
A#|--------------------------|--------------------------------| 
F#|-4--x-5-5-x--2-2-x--------|-4-4-x--5-5-x--2-2--2-2-2-2-2-2-| 
C#|-4--x-5-5-x--2-2-x--2-2-x-|-4-4-x--5-5-x--2-2--2-2-2-2-2-2-| 
G#|-2--x-3-3-x--0-0-x--2-2-x-|-2-2-x--3-3-x--0-0--0-0-0-0-0-0-| 
C#|--------------------2-2-x-|--------------------------------| 
                                                  pm. . . . . 
Chorus 1 
(1:27 - 1:55) 
Guitar 1 (Electric) (1:27 - 1:55) (Riff 6) 
C#|---------------------------------|----------------------------------| 
G#|---------------------------------|----------------------------------| 
 E|---------------------------------|----------------------------------| 
 B|---------------------------------|----------------------------------| 
F#|-5-5-5-5-5-5-5-5-5-5-5-5/8-8-8---|-/2-2-2-2-2-2-2-2-2-2-2-2-2-2-2-2-| 
C#|---------------------------------|----------------------------------| 

C#|---------------------------------|-----------------------------------------| 
G#|---------------------------------|-----------------------------------------| 
 E|---------------------------------|--------6-6-6-7-7-7-10-10-10-11-11-11-11-| 
 B|---------------------------------|-----------------------------------------| 
F#|-5-5-5-5-5-5-5-5-5-5-5-5/8-8-8---|-/2-2-2----------------------------------| 
C#|---------------------------------|-----------------------------------------| 

C#|---------------------------------|----------------------------------| 
G#|---------------------------------|----------------------------------| 
 E|---------------------------------|----------------------------------| 
 B|---------------------------------|----------------------------------| 
F#|-5-5-5-5-5-5-5-5-5-5-5-5/8-8-8---|-/2-2-2-2-2-2-2-2-2-2-2-2-2-2-2-2-| 
C#|---------------------------------|----------------------------------| 

C#|---------------------------------|-----------------------------------------| 
G#|---------------------------------|-----------------------------------------| 
 E|---------------------------------|--------6-6-6-7-7-7-10-10-10-11-11-11-11-| 
 B|---------------------------------|-----------------------------------------| 
F#|-5-5-5-5-5-5-5-5-5-5-5-5/8-8-8---|-/2-2-2----------------------------------| 
C#|---------------------------------|-----------------------------------------| 

*DROP C# VARIATION* 
D#|---------------------------------|----------------------------------| 
A#|---------------------------------|----------------------------------| 
F#|---------------------------------|----------------------------------| 
C#|---------------------------------|----------------------------------| 
G#|-3-3-3-3-3-3-3-3-3-3-3-3/6-6-6---|-/0-0-0-0-0-0-0-0-0-0-0-0-0-0-0-0-| 
C#|---------------------------------|----------------------------------| 

D#|---------------------------------|----------------------------------| 
A#|---------------------------------|----------------------------------| 
F#|---------------------------------|--------4-4-4-5-5-5-8-8-8-9-9-9-9-| 
C#|---------------------------------|----------------------------------| 
G#|-3-3-3-3-3-3-3-3-3-3-3-3/6-6-6---|-/0-0-0---------------------------| 
C#|---------------------------------|----------------------------------| 

D#|---------------------------------|----------------------------------| 
A#|---------------------------------|----------------------------------| 
F#|---------------------------------|----------------------------------| 
C#|---------------------------------|----------------------------------| 
G#|-3-3-3-3-3-3-3-3-3-3-3-3/6-6-6---|-/0-0-0-0-0-0-0-0-0-0-0-0-0-0-0-0-| 
C#|---------------------------------|----------------------------------| 

D#|---------------------------------|----------------------------------| 
A#|---------------------------------|----------------------------------| 
F#|---------------------------------|--------4-4-4-5-5-5-8-8-8-9-9-9-9-| 
C#|---------------------------------|----------------------------------| 
G#|-3-3-3-3-3-3-3-3-3-3-3-3/6-6-6---|-/0-0-0---------------------------| 
C#|---------------------------------|----------------------------------| 

Solo 
(1:56 - 2:26) 
Guitar 1 (Electric) (1:56 - 2:26) (Riff 7) 
C#|-------------------------------------|------------------------------------|-------------| 
G#|-------------------------------------|------------------------------------|-------------| 
 E|-------------------------------------|------------------------------------|-6--x-7-7--7-| 
 B|-------------------------------------|------------------------------------|-6--x-7-7--7-| 
F#|-------------------------------------|------------------------------------|-4--x-5-5--5-| 
C#|-0h2-2-2--0h2-2-2--0h2-2-2--0h2-2-2--|-0h2-2-2--0h2-2-2--0h2-2-2--0h2-2-2-|-------------| 

C#|-------------------------------------|------------------------------------|-------------| 
G#|-------------------------------------|------------------------------------|-------------| 
 E|-------------------------------------|------------------------------------|-6--x-7-7--7-| 
 B|-------------------------------------|------------------------------------|-6--x-7-7--7-| 
F#|-------------------------------------|------------------------------------|-4--x-5-5--5-| 
C#|-0h2-2-2--0h2-2-2--0h2-2-2--0h2-2-2--|-0h2-2-2--0h2-2-2--0h2-2-2--0h2-2-2-|-------------| 

C#|-------------------------------------|------------------------------------|-------------| 
G#|-------------------------------------|------------------------------------|-------------| 
 E|-------------------------------------|------------------------------------|-6--x-7-7--7-| 
 B|-------------------------------------|------------------------------------|-6--x-7-7--7-| 
F#|-------------------------------------|------------------------------------|-4--x-5-5--5-| 
C#|-0h2-2-2--0h2-2-2--0h2-2-2--0h2-2-2--|-0h2-2-2--0h2-2-2--0h2-2-2--0h2-2-2-|-------------| 

C#|-------------------------------------|------------------------------------|-------------| 
G#|-------------------------------------|------------------------------------|-------------| 
 E|-------------------------------------|------------------------------------|-6--x-7-7--7-| 
 B|-------------------------------------|------------------------------------|-6--x-7-7--7-| 
F#|-------------------------------------|------------------------------------|-4--x-5-5--5-| 
C#|-0h2-2-2--0h2-2-2--0h2-2-2--0h2-2-2--|-0h2-2-2--0h2-2-2--0h2-2-2--0h2-2-2-|-------------| 

C#|-------------| 
G#|-------------| 
 E|-6--x-7-7--7-| 
 B|-6--x-7-7--7-| 
F#|-4--x-5-5--5-| 
C#|-------------| 

*DROP C# VARIATION* 
D#|-------------------------------------|------------------------------------|-------------| 
A#|-------------------------------------|------------------------------------|-------------| 
F#|-------------------------------------|------------------------------------|-4--x-5-5--5-| 
C#|-------------------------------------|------------------------------------|-4--x-5-5--5-| 
G#|-------------------------------------|------------------------------------|-2--x-3-3--3-| 
C#|-0h2-2-2--0h2-2-2--0h2-2-2--0h2-2-2--|-0h2-2-2--0h2-2-2--0h2-2-2--0h2-2-2-|-------------| 

D#|-------------------------------------|------------------------------------|-------------| 
A#|-------------------------------------|------------------------------------|-------------| 
F#|-------------------------------------|------------------------------------|-4--x-5-5--5-| 
C#|-------------------------------------|------------------------------------|-4--x-5-5--5-| 
G#|-------------------------------------|------------------------------------|-2--x-3-3--3-| 
C#|-0h2-2-2--0h2-2-2--0h2-2-2--0h2-2-2--|-0h2-2-2--0h2-2-2--0h2-2-2--0h2-2-2-|-------------| 

D#|-------------------------------------|------------------------------------|-------------| 
A#|-------------------------------------|------------------------------------|-------------| 
F#|-------------------------------------|------------------------------------|-4--x-5-5--5-| 
C#|-------------------------------------|------------------------------------|-4--x-5-5--5-| 
G#|-------------------------------------|------------------------------------|-2--x-3-3--3-| 
C#|-0h2-2-2--0h2-2-2--0h2-2-2--0h2-2-2--|-0h2-2-2--0h2-2-2--0h2-2-2--0h2-2-2-|-------------| 

D#|-------------------------------------|------------------------------------|-------------| 
A#|-------------------------------------|------------------------------------|-------------| 
F#|-------------------------------------|------------------------------------|-4--x-5-5--5-| 
C#|-------------------------------------|------------------------------------|-4--x-5-5--5-| 
G#|-------------------------------------|------------------------------------|-2--x-3-3--3-| 
C#|-0h2-2-2--0h2-2-2--0h2-2-2--0h2-2-2--|-0h2-2-2--0h2-2-2--0h2-2-2--0h2-2-2-|-------------| 

D#|-------------| 
A#|-------------| 
F#|-4--x-5-5--5-| 
C#|-4--x-5-5--5-| 
G#|-2--x-3-3--3-| 
C#|-------------| 

verse 3 
(2:26 - 2:41) 
Guitar 1 (Electric) (2:26 - 2:41) (Riff 8) 
C#|------------------------------|------------------------------|------------------------------| 
G#|------------------------------|------------------------------|------------------------------| 
 E|------------------------------|------------------------------|------------------------------| 
 B|------------------------------|------------------------------|------------------------------| 
F#|------------------------------|------------------------------|------------------------------| 
C#|-0h2---0h2---0h2---0h2h3--5-3-|-0h2---0h2---0h2---0h2h3--5-3-|-0h2---3p2---0h2---0h2h3--5-3-| 

C#|----------------------------------------| 
G#|----------------------------------------| 
 E|----------------------------------------| 
 B|----------------------------------------| 
F#|----------------------------------------| 
C#|-0h2---3p2---2h3p2p0-2h3p2p0-0h2h3--5-3-| 

Chorus 2 
(2:41 - 3:10) 
Guitar 1 (Electric) (2:41- 3:10) (Riff 6) 
C#|---------------------------------|----------------------------------| 
G#|---------------------------------|----------------------------------| 
 E|---------------------------------|----------------------------------| 
 B|---------------------------------|----------------------------------| 
F#|-5-5-5-5-5-5-5-5-5-5-5-5/8-8-8---|-/2-2-2-2-2-2-2-2-2-2-2-2-2-2-2-2-| 
C#|---------------------------------|----------------------------------| 

C#|---------------------------------|-----------------------------------------| 
G#|---------------------------------|-----------------------------------------| 
 E|---------------------------------|--------6-6-6-7-7-7-10-10-10-11-11-11-11-| 
 B|---------------------------------|-----------------------------------------| 
F#|-5-5-5-5-5-5-5-5-5-5-5-5/8-8-8---|-/2-2-2----------------------------------| 
C#|---------------------------------|-----------------------------------------| 

C#|---------------------------------|----------------------------------| 
G#|---------------------------------|----------------------------------| 
 E|---------------------------------|----------------------------------| 
 B|---------------------------------|----------------------------------| 
F#|-5-5-5-5-5-5-5-5-5-5-5-5/8-8-8---|-/2-2-2-2-2-2-2-2-2-2-2-2-2-2-2-2-| 
C#|---------------------------------|----------------------------------| 

C#|---------------------------------|-----------------------------------------| 
G#|---------------------------------|-----------------------------------------| 
 E|---------------------------------|--------6-6-6-7-7-7-10-10-10-11-11-11-11-| 
 B|---------------------------------|-----------------------------------------| 
F#|-5-5-5-5-5-5-5-5-5-5-5-5/8-8-8---|-/2-2-2----------------------------------| 
C#|---------------------------------|-----------------------------------------| 

*DROP C# VARIATION* 
D#|---------------------------------|----------------------------------| 
A#|---------------------------------|----------------------------------| 
F#|---------------------------------|----------------------------------| 
C#|---------------------------------|----------------------------------| 
G#|-3-3-3-3-3-3-3-3-3-3-3-3/6-6-6---|-/0-0-0-0-0-0-0-0-0-0-0-0-0-0-0-0-| 
C#|---------------------------------|----------------------------------| 

D#|---------------------------------|----------------------------------| 
A#|---------------------------------|----------------------------------| 
F#|---------------------------------|--------4-4-4-5-5-5-8-8-8-9-9-9-9-| 
C#|---------------------------------|----------------------------------| 
G#|-3-3-3-3-3-3-3-3-3-3-3-3/6-6-6---|-/0-0-0---------------------------| 
C#|---------------------------------|----------------------------------| 

D#|---------------------------------|----------------------------------| 
A#|---------------------------------|----------------------------------| 
F#|---------------------------------|----------------------------------| 
C#|---------------------------------|----------------------------------| 
G#|-3-3-3-3-3-3-3-3-3-3-3-3/6-6-6---|-/0-0-0-0-0-0-0-0-0-0-0-0-0-0-0-0-| 
C#|---------------------------------|----------------------------------| 

D#|---------------------------------|----------------------------------| 
A#|---------------------------------|----------------------------------| 
F#|---------------------------------|--------4-4-4-5-5-5-8-8-8-9-9-9-9-| 
C#|---------------------------------|----------------------------------| 
G#|-3-3-3-3-3-3-3-3-3-3-3-3/6-6-6---|-/0-0-0---------------------------| 
C#|---------------------------------|----------------------------------| 

Outro 
(3:10 - 3:47) 
Guitar 1 (Electric) (3:10 - 3:47) (Riff 7) 
C#|-------------------------------------|------------------------------------|-------------| 
G#|-------------------------------------|------------------------------------|-------------| 
 E|-------------------------------------|------------------------------------|-6--x-7-7--7-| 
 B|-------------------------------------|------------------------------------|-6--x-7-7--7-| 
F#|-------------------------------------|------------------------------------|-4--x-5-5--5-| 
C#|-0h2-2-2--0h2-2-2--0h2-2-2--0h2-2-2--|-0h2-2-2--0h2-2-2--0h2-2-2--0h2-2-2-|-------------| 

C#|-------------------------------------|------------------------------------|-------------| 
G#|-------------------------------------|------------------------------------|-------------| 
 E|-------------------------------------|------------------------------------|-6--x-7-7--7-| 
 B|-------------------------------------|------------------------------------|-6--x-7-7--7-| 
F#|-------------------------------------|------------------------------------|-4--x-5-5--5-| 
C#|-0h2-2-2--0h2-2-2--0h2-2-2--0h2-2-2--|-0h2-2-2--0h2-2-2--0h2-2-2--0h2-2-2-|-------------| 

C#|-------------------------------------|------------------------------------|-------------| 
G#|-------------------------------------|------------------------------------|-------------| 
 E|-------------------------------------|------------------------------------|-6--x-7-7--7-| 
 B|-------------------------------------|------------------------------------|-6--x-7-7--7-| 
F#|-------------------------------------|------------------------------------|-4--x-5-5--5-| 
C#|-0h2-2-2--0h2-2-2--0h2-2-2--0h2-2-2--|-0h2-2-2--0h2-2-2--0h2-2-2--0h2-2-2-|-------------| 

C#|-------------------------------------|------------------------------------|-------------| 
G#|-------------------------------------|------------------------------------|-------------| 
 E|-------------------------------------|------------------------------------|-6--x-7-7--7-| 
 B|-------------------------------------|------------------------------------|-6--x-7-7--7-| 
F#|-------------------------------------|------------------------------------|-4--x-5-5--5-| 
C#|-0h2-2-2--0h2-2-2--0h2-2-2--0h2-2-2--|-0h2-2-2--0h2-2-2--0h2-2-2--0h2-2-2-|-------------| 

C#|-------------| 
G#|-------------| 
 E|-6--x-7-7--7-| 
 B|-6--x-7-7--7-| 
F#|-4--x-5-5--5-| 
C#|-------------| 

*DROP C# VARIATION* 
D#|-------------------------------------|------------------------------------|-------------| 
A#|-------------------------------------|------------------------------------|-------------| 
F#|-------------------------------------|------------------------------------|-4--x-5-5--5-| 
C#|-------------------------------------|------------------------------------|-4--x-5-5--5-| 
G#|-------------------------------------|------------------------------------|-2--x-3-3--3-| 
C#|-0h2-2-2--0h2-2-2--0h2-2-2--0h2-2-2--|-0h2-2-2--0h2-2-2--0h2-2-2--0h2-2-2-|-------------| 

D#|-------------------------------------|------------------------------------|-------------| 
A#|-------------------------------------|------------------------------------|-------------| 
F#|-------------------------------------|------------------------------------|-4--x-5-5--5-| 
C#|-------------------------------------|------------------------------------|-4--x-5-5--5-| 
G#|-------------------------------------|------------------------------------|-2--x-3-3--3-| 
C#|-0h2-2-2--0h2-2-2--0h2-2-2--0h2-2-2--|-0h2-2-2--0h2-2-2--0h2-2-2--0h2-2-2-|-------------| 

D#|-------------------------------------|------------------------------------|-------------| 
A#|-------------------------------------|------------------------------------|-------------| 
F#|-------------------------------------|------------------------------------|-4--x-5-5--5-| 
C#|-------------------------------------|------------------------------------|-4--x-5-5--5-| 
G#|-------------------------------------|------------------------------------|-2--x-3-3--3-| 
C#|-0h2-2-2--0h2-2-2--0h2-2-2--0h2-2-2--|-0h2-2-2--0h2-2-2--0h2-2-2--0h2-2-2-|-------------| 

D#|-------------------------------------|------------------------------------|-------------| 
A#|-------------------------------------|------------------------------------|-------------| 
F#|-------------------------------------|------------------------------------|-4--x-5-5--5-| 
C#|-------------------------------------|------------------------------------|-4--x-5-5--5-| 
G#|-------------------------------------|------------------------------------|-2--x-3-3--3-| 
C#|-0h2-2-2--0h2-2-2--0h2-2-2--0h2-2-2--|-0h2-2-2--0h2-2-2--0h2-2-2--0h2-2-2-|-------------| 

D#|-------------| 
A#|-------------| 
F#|-4--x-5-5--5-| 
C#|-4--x-5-5--5-| 
G#|-2--x-3-3--3-| 
C#|-------------| 


************************************ 

| /  slide up 
| \  slide down 
| h  hammer-on 
| p  pull-off 
| ~  vibrato 
| +  harmonic 
| x  Mute note 
| .  Staccato 

************************************ 
  

top 5 | stone sour
top
Outras músicas do artista letras do(a) Stone Sour
Top cifras »Top artistas »
Petaxxon Comunicação Online
Cifras.com.br - Melhor e mais completo site de cifras e tablaturas do Brasil
Mais de 1 milhão de acordes de músicas cadastradas desde 2003
As informações contidas no nosso site são colaborações de seus usuários e podem conter erros, sendo assim, não nos responsabilizamos sobre nenhuma destas.
close
menos
mais
close
Cor dos acordes:

Cor da letra:

 

save
close
close
 
redimensionar