Cifras e Tablaturas
Stratovarius

Stratovarius

Stratosphere Tablatura Verificada

Cifras Cancelar Versão de Impressão
cifras

Stratovarius - Stratosphere

fixar na tela  
Exibindo: vídeo-aula ver clipes redimensionar

Tom:

  Stratovarius - Stratosphere  

Pre Intro
2x
e|12-0-0-0-8-0-0-0-7-0-0-0-5-0-0-0-12-0-0-0-8-0-0-0-7-0-0-0-5-0-0-0-|
B|------------------------------------------------------------------|
G|------------------------------------------------------------------|
D|------------------------------------------------------------------|
A|------------------------------------------------------------------|
E|------------------------------------------------------------------|


Intro
4x
e|12-0-0-0-8-0-0-0-7-0-0-0-5-0-0-0-12-13-12-10---------------------|
B|---------------------------------------------13-12-10-9-10-12-13-|
G|-----------------------------------------------------------------|
D|-----------------------------------------------------------------|
A|-----------------------------------------------------------------|
E|-----------------------------------------------------------------|

e|-10-12-13-12-10--|
B|-----------------|
G|-----------------|
D|-----------------|
A|-----------------|
E|-----------------|

e|12-0-0-0-10-0-0-0-7-0-0-0-4-0-0-0-12-13-12-10---------------------|
B|----------------------------------------------13-12-10-9-10-12-13-|
G|------------------------------------------------------------------|
D|------------------------------------------------------------------|
A|------------------------------------------------------------------|
E|------------------------------------------------------------------|

e|-10-12-13-12-10-|
B|----------------|
G|----------------|
D|----------------|
A|----------------|
E|----------------|

Parte A
2x
e|-12-9----9-12-9-13-9-12-9----9-12-9----|
B|------10------------------10--------10-|
G|---------------------------------------|
D|---------------------------------------|
A|---------------------------------------|
E|---------------------------------------|

e|-17-13----13-17-13-18-13-17-13---13-17-13----|
B|------15--------------------- 15---------15--|
G|---------------------------------------------|
D|---------------------------------------------|
A|---------------------------------------------|
E|---------------------------------------------| 

e|10-7---7-10-7-12-7-10-7---7-10-7-----------------------------------|
B|-----8------------------8--------8---------------------------------|
G|-------------------------------------------------------------------|
D|-------------------------------------------------------------------|
A|-------------------------------------------------------------------|
E|-------------------------------------------------------------------|

e|15-12---12-15-12-17-12-15-12----12-15-12----------------------------|
B|-----13----------------------13----------13-------------------------|
G|--------------------------------------------------------------------|
D|--------------------------------------------------------------------|
A|--------------------------------------------------------------------|
E|--------------------------------------------------------------------|

e|8-5---5-8-5-10-5-8-5---5-8-5----------------------------------------|
B|----6----------------6-------6--------------------------------------|
G|--------------------------------------------------------------------|
D|--------------------------------------------------------------------|
A|--------------------------------------------------------------------|
E|--------------------------------------------------------------------|

e|14-11---11-14-11-15-11-14-11----11-14-11---------------------------|
B|-----12----------------------12----------12------------------------|
G|-------------------------------------------------------------------|
D|-------------------------------------------------------------------|
A|-------------------------------------------------------------------|
E|-------------------------------------------------------------------|

e|19-16----16-19-16-20-16-19-16----16-19-16---------------------------|
B|------17----------------------17----------17------------------------|
G|--------------------------------------------------------------------|
D|--------------------------------------------------------------------|
A|--------------------------------------------------------------------|
E|--------------------------------------------------------------------|

e|19-16----16-19-16-20-16-19-16----16-19-16---------------------------|
B|------17----------------------17------------------------------------|
G|--------------------------------------------------------------------|
D|--------------------------------------------------------------------|
A|--------------------------------------------------------------------|
E|--------------------------------------------------------------------|

Parte b
4X
 
e|--------------------------------------------------------------------|
B|10-13-12-10-9-12-10-9-10-13-12-10-9-12-10-9-10-13-12-10-12-15-13----|
G|--------------------------------------------------------------------|
D|--------------------------------------------------------------------|
A|--------------------------------------------------------------------|
E|--------------------------------------------------------------------|

e|--------------------------------------------------------------------|
B|-12-13-17-15-13-14-17-15-14-15-18-17-15-14-17-15-14-15-18-17-15-16--|
G|--------------------------------------------------------------------|
D|--------------------------------------------------------------------|
A|--------------------------------------------------------------------|
E|--------------------------------------------------------------------|

e|--------------------------------------------------------------------|
B|-19-17-16-17-18-17-15-----------------------------------------------|
G|----------------------17-16-14-13-----------------------------------|
D|--------------------------------------------------------------------|
A|--------------------------------------------------------------------|
E|--------------------------------------------------------------------|

e|--------------------------------------------------------------------|
B|10-13-12-10-9-12-10-9-10-13-12-10-9-12-10-9-10-13-12-10-12-15-13----|
G|--------------------------------------------------------------------|
D|--------------------------------------------------------------------|
A|--------------------------------------------------------------------|
E|--------------------------------------------------------------------|

e|--------------------------------------------------------------------|
B|-12-13-17-15-13-14-17-15-14-15-18-17-15-14-17-15-14-15-18-17-15-16--|
G|--------------------------------------------------------------------|
D|--------------------------------------------------------------------|
A|--------------------------------------------------------------------|
E|--------------------------------------------------------------------|

e|--------------------------------------------------------------------|
B|-19-17-16-17--------------------------------------------------------|
G|--------------------------------------------------------------------|
D|--------------------------------------------------------------------|
A|--------------------------------------------------------------------|
E|--------------------------------------------------------------------|

tremolo picking
e|19-19-19-19-16-16-16-16----------------------------------------------|
B|------------------------17-17-17-17----------------------------------|
G|------------------------------------16-16-16-16-14-14-14-13-13-13-13-|
D|---------------------------------------------------------------------|
A|---------------------------------------------------------------------|
E|---------------------------------------------------------------------|

e|--------------------------------------------------------------------|
B|--------------------------------------------------------------------|
G|9-9-9-9-------------------------------------------------------------|
D|--------9-9-9-9-----------------------------------------------------|
A|----------------12-12-12-12-11-11-----------------------------------|
E|----------------------------------13-13-13-13-10-10-10-10-----------|

e|--------------------------------------------------------------------|
B|--------------------------------------------------------------------|
G|9-10-7-9----7-------------------------------------------------------|
D|---------10---9-10-7-9-6/--2----------------------------------------|
A|---------------------------0----------------------------------------|
E|--------------------------------------------------------------------|

especial 1
e|--------------------------------------------------------------------|
B|---------------------------------------8p5--------------------------|
G|----5~-7b9r7-4----------------5--7b9r7------------------------------|
D|---------------5-----7-7--------------------------------------------|
A|5/7--------------5-7------5/7---------------------------------------|
E|--------------------------------------------------------------------|

e|--------------------------------------------------------------------|
B|5-6~8-8/10-12-12b13-12b13-12-10-13-12---/6-5---6-5~-----------------|
G|---------------------------------------------7----------------------|
D|--------------------------------------------------------------------|
A|--------------------------------------------------------------------|
E|--------------------------------------------------------------------|

e|--------------------------------------------------------------------|
B|---------------------------------------8p5--------------------------|
G|----5~-7b9r7-4----------------5--7b9r7------------------------------|
D|---------------5-----7-7--------------------------------------------|
A|5/7--------------5-7------5/7---------------------------------------|
E|--------------------------------------------------------------------|

e|--------------------------------------------------------19-19-----|
B|5-6~8-8/10-12-12b13-12b13-12-10-13-12---18017----18-17------------|
G|----------------------------------------------19------------------|
D|------------------------------------------------------------------|
A|------------------------------------------------------------------|
E|------------------------------------------------------------------|

especial 2
2x 
 
e|9/12-9----------7/10-7-------5/8-5----------------------------------|
B|-------10-8-6----------8-6-5--------6-5-3--3-4-7-4---5--------------|
G|---------------------------------------------------4----------------|
D|--------------------------------------------------------------------|
A|--------------------------------------------------------------------|
E|--------------------------------------------------------------------|

volta pra intro 6x
==
depois final 3x
e|-12-13-12-10--------------------10-12-13-12-10----------------------|
B|-------------13-12-10-9-10-12-13------------------------------------|
G|--------------------------------------------------------------------|
D|--------------------------------------------------------------------|
A|--------------------------------------------------------------------|
E|--------------------------------------------------------------------|

e|12-13-10-12---10----------------------------------------------------|
B|------------13---12-13-10-12-9-10-----------------------------------|
G|----------------------------------9-10-7-9----7---------------------|
D|-------------------------------------------10---9-10-7-9-6-7--------|
A|--------------------------------------------------------------------|
E|--------------------------------------------------------------------|

e|--------------------------------------------------------------------|
B|--------------------------------------------------------------------|
G|--------------------------------------------------------------------|
D|--------------------------------------------------------------------|
A|7-8-5-7---5--------3------------------------------------------------|
E|--------8---7-8----1------------------------------------------------|

e|---------------------------------------------------------------------|
B|---------------------------------------------------------------------|
G|---------------------------------------------------14-16-17-14-16-17-|
D|----------------------------------13-14-16-13-14-16------------------|
A|-----------------12-14-15-12-14-15-----------------------------------|
E|11-12-14-11-12-14----------------------------------------------------|

e|--------------------------------------------------------------------|
B|15-17-18-17-15-17-15-17/22------------------------------------------|
G|--------------------------------------------------------------------|
D|--------------------------------------------------------------------|
A|--------------------------------------------------------------------|
E|--------------------------------------------------------------------|

  

top 5 | stratovarius
top heavy metal
Outras músicas do artista letras do(a) Stratovarius
Top cifras »Top artistas »
Petaxxon Comunicação Online
Cifras.com.br - Melhor e mais completo site de cifras e tablaturas do Brasil
Mais de 1 milhão de acordes de músicas cadastradas desde 2003
As informações contidas no nosso site são colaborações de seus usuários e podem conter erros, sendo assim, não nos responsabilizamos sobre nenhuma destas.
close
menos
mais
close
Cor dos acordes:

Cor da letra:

 

save
close
close
 
redimensionar