Cifras e Tablaturas
Stupeflip

Stupeflip

Le Spleen Des Petits

Cifras Cancelar Versão de Impressão
cifras

Stupeflip - Le Spleen Des Petits

fixar na tela  
Exibindo: vídeo-aula ver clipes redimensionar
  
E|---------------------|-----------------------| 
B|---------------------|-----------------------| 
G|-13---13---13---13---|-14---15-17-15---15----| 
D|---------------------|--------------------15-| 
A|---------------------|-----------------------| 
E|---------------------|-----------------------| 

Outro : 

E|---------------------| x11 
B|---------------------| 
G|-13---13---13---13---| 
D|---------------------| 
A|---------------------| 
E|---------------------| 

E|---------------------| 
B|---------------------| 
G|-13---13---13--------| 
D|---------------------| 
A|---------------------| 
E|---------------------| 
  

top 5 | stupeflip
top rock'n roll
Outras músicas do artista letras do(a) Stupeflip
Top cifras »Top artistas »
Petaxxon Comunicação Online
Cifras.com.br - Melhor e mais completo site de cifras e tablaturas do Brasil
Mais de 1 milhão de acordes de músicas cadastradas desde 2003
As informações contidas no nosso site são colaborações de seus usuários e podem conter erros, sendo assim, não nos responsabilizamos sobre nenhuma destas.
close
menos
mais
close
Cor dos acordes:

Cor da letra:

 

save
close
close
 
redimensionar