Cifras e Tablaturas
Sunflower Bean

Sunflower Bean

Crisis Fest

Cifras Cancelar Versão de Impressão

Sunflower Bean - Crisis Fest

Tom: B

  			verse 1 
B 
A thousand men in uniform 
B 
Kicked down the doors of my concern 
    A 
And stormed the kingdom to take its worth 
B 
Leaving every stone unturned 
B 
A thousand men in uniform 
B 
Kicked down the doors of my concern 
    A 
And stormed the kingdom to take its worth 
B 
Leaving every stone unturned 

Pre-Chorus 
E                         B 
Fate can pick you up, you know that it can put you down 
E                      B 
It can pick you up and spin your head around and round 

Chorus 
e|---------------------------| 
B|---------------------------| 
G|---------------------------| 
D|-----------------2-2-------| 
A|---------2-----------4-2-0-| 
E|-0---2h4---4p2h4-----------| 

E                       A                B 
If you hold us back you know that we can shout 

e|---------------------------| 
B|---------------------------| 
G|---------------------------| 
D|-----------------2-2-------| 
A|---------2-----------4-2-0-| 
E|-0---2h4---4p2h4-----------| 

E                                   A                    B 
We brought you into this place, you know we can take you out 

verse 2 
B 
You've been in school for ten years now 
B 
80 grand indebted down 
A 
Every day's a missile test 
B 
Your dancing shoes and torn up dress 
B 
2017 we know 
B 
Reality's one big sick show 
A 
Every day's a crisis fest 
B 
Your dancing shoes and torn up dress 

Pre-Chorus 
E                         B 
Fate can pick you up, you know that it can put you down 
E                      B 
It can pick you up and spin your head around and round 

Chorus 
e|---------------------------| 
B|---------------------------| 
G|---------------------------| 
D|-----------------2-2-------| 
A|---------2-----------4-2-0-| 
E|-0---2h4---4p2h4-----------| 

E                       A                B 
If you hold us back you know that we can shout (no, no, no) 

e|---------------------------| 
B|---------------------------| 
G|---------------------------| 
D|-----------------2-2-------| 
A|---------2-----------4-2-0-| 
E|-0---2h4---4p2h4-----------| 

E                                   A                    B 
We brought you into this place, you know we can take you out (no, no, no) 
E                       A                B 
If you hold us back you know that we can shout (no, no, no) 
E                                   A                    B 
We brought you into this place, you know we can take you out (no, no, no) 

Solo 
   D                   E                             A       B 
e|------------------------------------------------------| 
B|-12b13br12-10-----------------------------------------| 
G|--------------13--14-13---13h14p13-13h14p13--7/6/7/9--| 
D|------------------------------------------------------| 
A|------------------------------------------------------| 
E|------------------------------------------------------| 
   D                   E                             A       B 
e|------------------------------------------------------| 
B|-12b13br12-10-----------------------------------------| 
G|--------------13--14-13---13h14p13-13h14p13--11-9-----| 
D|------------------------------------------------------| 
A|------------------------------------------------------| 
E|------------------------------------------------------| 

Bridge 
C# 
There's a coup in our country, it's happening now 
C# 
A coup in our city, it's happening downtown 
      B 
Every tragedy has its sad clown 
C# 
Every victory has its dark cloud 

Chorus 
E                       A                B 
If you hold us back you know that we can shout (no, no, no) 

e|---------------------------| 
B|---------------------------| 
G|---------------------------| 
D|-----------------2-2-------| 
A|---------2-----------4-2-0-| 
E|-0---2h4---4p2h4-----------| 

E                                   A                    B 
We brought you into this place, you know we can take you out (no, no, no) 
E                       A                B 
If you hold us back you know that we can shout (no, no, no) 
E                                   A                    B 
We brought you into this place, you know we can take you out 

Outro 
D   E   A   B 

   D                   E                             A       B 
e|------------------------------------------------------| 
B|-12b13br12-10-----------------------------------------| 
G|--------------13--14-13---13h14p13-13h14p13--11-9-----| 
D|------------------------------------------------------| 
A|------------------------------------------------------| 
E|------------------------------------------------------| 
D   A   B 
    	
fixar
fixar inscrever-se

enviado porenviado por: LINEKERS
cifra enviadaCorrigida por: sem correções
logo top cifrasComente
ico música do artistaMúsicas deste artista
ico curtiuCurtiu?
ico destaqueDestaque
Petaxxon Comunicação Online

Cifras.com.br - Melhor e mais completo site de cifras e tablaturas do Brasil Mais de 1 milhão de acordes de músicas cadastradas desde 2003
As informações contidas no nosso site são colaborações de seus usuários e podem conter erros, sendo assim, não nos responsabilizamos sobre nenhuma destas.

close
menos
mais
close
Cor dos acordes:

Cor da letra:

close
Alinhar acordes a direita Alinhar acordes a esquerda Alinhar acordes em baixo Alinhar acordes no topo
close
  Mostrar todos os acordes Esconder acordes muito fáceis Esconder acordes fáceis Esconder acordes intermediários
redimensionar
glossário