Cifras e Tablaturas
Sungha Jung

Sungha Jung

I'm Not The Only One

Cifras Cancelar Versão de Impressão
cifras

Sungha Jung - I'm Not The Only One

fixar na tela  
Exibindo: vídeo-aula ver clipes redimensionar
  
Am 
E|----------------x--------x-|---------x--------x-| 
B|-----------1----x--------x-|----1----x----1---x-| 
G|-----------0----x----1---x-|----2----x----0---x-| 
D|----0h2---------x----0---x-|----2----x----3---x-| 
A|----3-----------x----2---x-|----0----x----3---x-| 
E|----------------x--------x-|---------x--------x-| 
      When..                     Call..     Baby.. 
                   
E|----------------x--------x-|------------| 
B|-----------1----x----0---x-|-----1------| 
G|-----------0----x----0---x-|-----0------| 
D|----0h2---------x----0---x-|-----2------| 
A|----3-----------x--------x-|-----3------| 
E|----------------x----3---x-|------------| 
      Know..           Only..      One.. 


Bridge 
(You can either pluck or strum it) 

       F         F             C         C                E7        E7            Am        G 
E|----1----x----1--------x----0----x----0--------x--|----0----x----0--------x----0----x----3--------| 
B|----1----x----1----1---x----1----x----1----1---x--|----0----x----0----0---x----1----x----3----3---| 
G|----2----x----2----2---x----0----x----0----0---x--|----1----x----1----1---x----2----x----0----0---| 
D|----3----x----3--------x----2----x----2--------x--|----0----x----0--------x----2----x----0--------| 
A|----3----x----3--------x----3----x----3--------x--|----2----x----2--------x----0----x-------------| 
E|----1----x----1--------x---------x-------------x--|---------x-------------x---------x----3--------| 
           I...          For..                            Maybe.. 

       F         F             C         C                Dm        Dm            G         G 
E|----1----x----1--------x----0----x----0--------x--|---------x-------------x----3----x----3--------| 
B|----1----x----1----1---x----1----x----1----1---x--|----3----x----3----3---x----3----x----3----3---| 
G|----2----x----2----2---x----0----x----0----0---x--|----2----x----2----2---x----0----x----0----0---| 
D|----3----x----3--------x----2----x----2--------x--|----0----x----0--------x----0----x----0--------| 
A|----3----x----3--------x----3----x----3--------x--|----0----x----0--------x---------x-------------| 
E|----1----x----1--------x---------x-------------x--|---------x-------------x----3----x----3--------| 
      You've..                Deepest..                  Lying.                  Up.. 




| x  Dead note 
| h  Hammer-on 
  

cifra enviadasem correções
enviado porenviada por:LINEKERS
top 5 | sungha jung
top rock clássico
Outras músicas do artista letras do(a) Sungha Jung
Top cifras »Top artistas »
Petaxxon Comunicação Online
Cifras.com.br - Melhor e mais completo site de cifras e tablaturas do Brasil
Mais de 1 milhão de acordes de músicas cadastradas desde 2003
As informações contidas no nosso site são colaborações de seus usuários e podem conter erros, sendo assim, não nos responsabilizamos sobre nenhuma destas.
close
menos
mais
close
Cor dos acordes:

Cor da letra:

 

save
close
close
 
redimensionar