Cifras e Tablaturas
Supercombo

Supercombo

Sol Da Manhã

Cifras Cancelar Versão de Impressão
cifras

Supercombo - Sol Da Manhã

fixar na tela  
Exibindo: vídeo-aula ver clipes redimensionar
  (Riff 1) 

E|------------------------------------------------| 
B|------------------------------------------------| 
G|-----2---2----2----0---0---0--------------------| 
D|------------------------------------------------| 
A|--1----1----1----1---1---1----------------------| 
E|------------------------------------------------| 

E|------------------------------------------------| 
B|------------------------------------------------| 
G|-----2---2----2----0---0---0--------------------| 
D|------------------------------------------------| 
A|--1----1----1----1---1---1----------------------| 
E|------------------------------------------------| 


(Riff 2) 

E|------------------------------------------------| 
B|------------------------------------------------| 
G|-----2---2----2----0---0---0--------------------| 
D|---1---1----1----1---1---1----------------------| 
A|------------------------------------------------| 
E|------------------------------------------------| 


E|------------------------------------------------| 
B|------------------------------------------------| 
G|-----2---2----2----0---0---0--------------------| 
D|---1---1----1----1---1---1----------------------| 
A|------------------------------------------------| 
E|------------------------------------------------| 


(Riff 3) 

E|------------------------------------------------| 
B|------------------------------------------------| 
G|-----2---------------------2--------------------| 
D|---------------------------0--------------------| 
A|--1------------------------1--------------------| 
E|---------------------------0--------------------| 

E|------------------------------------------------| 
B|------------------------------------------------| 
G|-----2---2----2----0---0---0--------------------| 
D|------------------------------------------------| 
A|--1----1----1----1---1---1----------------------| 
E|------------------------------------------------| 


(Riff 4) 

E|------------------------------------------------| 
B|------------------------------------------------| 
G|-----2---2----2----0---0---0--------------------| 
D|------------------------------------------------| 
A|--1----1----1----1---1---1----------------------| 
E|------------------------------------------------| 

E|------------------------------------------------| 
B|------------------------------------------------| 
G|-----2-----0-------0---0---0--------------------| 
D|------------------------------------------------| 
A|--1----1-1-------1---1---1----------------------| 
E|------------------------------------------------|  
  

top 5 | supercombo
top rock'n roll
Outras músicas do artista letras do(a) Supercombo
Top cifras »Top artistas »
Petaxxon Comunicação Online
Cifras.com.br - Melhor e mais completo site de cifras e tablaturas do Brasil
Mais de 1 milhão de acordes de músicas cadastradas desde 2003
As informações contidas no nosso site são colaborações de seus usuários e podem conter erros, sendo assim, não nos responsabilizamos sobre nenhuma destas.
close
menos
mais
close
Cor dos acordes:

Cor da letra:

 

save
close
close
 
redimensionar