Cifras e Tablaturas
Syd Arthur

Syd Arthur

Dorothy

Cifras Cancelar Versão de Impressão
cifras

Syd Arthur - Dorothy

fixar na tela  
Exibindo: vídeo-aula ver clipes redimensionar

Tom:

  
Intro 

e|--5-----6-----1---------5-----6----------| 
B|--5-----6-----1---------5-----6----------| 
G|--5-----6-----1---------5-----6----------| 
D|--7-----8-----3---------7-----8----------| 
A|--8-----9-----4---------8-----9----------| 
E|--8-----9-----4---------8-----9----------| 



verse 1 "Born to live now..." 

e|--1--1--1--1-----3--3--3--3-----3--3-----1--1-----3--3-----1--1-----1--1--1--1------| 
B|--1--1--1--1-----4--4--4--4-----4--4-----3--3-----4--4-----3--2-----1--1--1--1------| 
G|--1--1--1--1-----3--3--3--3-----5--5-----1--1-----5--5-----1--3-----1--1--1--1------| 
D|--1--1--1--1-----5--5--5--5-----6--6-----3--3-----6--6-----3--4-----1--1--1--1------| 
A|--3--3--3--3-----3--3--3--3--------------1--1--------------1--------3--3--3--3------| 
E|--1--1--1--1--------------------------------------------------------1--1--1--1------| 


e|--1--1--1--1-----3--3--3--3-----3--3-----1--1-----3--3-----1--1---------4---3---1--------| 
B|--1--1--1--1-----4--4--4--4-----4--4-----3--3-----4--4-----3--2---------6---4---1--------| 
G|--1--1--1--1-----3--3--3--3-----5--5-----1--1-----5--5-----1--3---------5---3---1--------| 
D|--1--1--1--1-----5--5--5--5-----6--6-----3--3-----6--6-----3--4-------------5---3--------| 
A|--3--3--3--3-----3--3--3--3--------------1--1--------------1----------------3---4--------| 
E|--1--1--1--1-----------------------------------------------------------------------------| 


e|--1--1--1--1-----3--3--3--3-----3--3-----1--1-----3--3-----1--1---------4---3---1--------| 
B|--1--1--1--1-----4--4--4--4-----4--4-----3--3-----4--4-----3--2---------6---4---1--------| 
G|--1--1--1--1-----3--3--3--3-----5--5-----1--1-----5--5-----1--3---------5---3---1--------| 
D|--1--1--1--1-----5--5--5--5-----6--6-----3--3-----6--6-----3--4-------------5---3--------| 
A|--3--3--3--3-----3--3--3--3--------------1--1--------------1----------------3---4--------| 
E|--1--1--1--1-----------------------------------------------------------------------------| 


Chorus "Out of my mind..." 

e|--5--5----3--3----9---9-----1--1-----| 
B|--5--5----3--3----9---9-----1--1-----| 
G|--5--5----3--3----9---9-----1--1-----| (x5) 
D|--7--7----5--5----10--10----3--3-----| 
A|--8--8----6--6----11--11----4--4-----| 
E|--8--8----6--6----11--11----4--4-----| 

e|--5--5----3--3----1-----| 
B|--5--5----3--3----1-----| 
G|--5--5----3--3----1-----| 
D|--7--7----5--5----3-----| 
A|--8--8----6--6----4-----| 
E|--8--8----6--6----4-----| 


verse 2 "Wasted..." 

e|--1-----------3--3---------3--3-----1--1-----3--3-----1--1-----| 
B|--1-----------4--4---------4--4-----3--3-----4--4-----3--2-----| 
G|--1-----------3--3---------5--5-----1--1-----5--5-----1--3-----| 
D|--1-----------5--5---------6--6-----3--3-----6--6-----3--4-----| 
A|--3-----------3--3------------------1--1--------------1--------| 
E|--1------------------------------------------------------------|  
  Let Ring            Pause 


e|--1--1--1--1-----3--3--3--3-----3--3-----1--1-----3--3-----1--1---------4---3---1---1-----| 
B|--1--1--1--1-----4--4--4--4-----4--4-----3--3-----4--4-----3--2---------6---4---1---3-----| 
G|--1--1--1--1-----3--3--3--3-----5--5-----1--1-----5--5-----1--3---------5---3---1---1-----| 
D|--1--1--1--1-----5--5--5--5-----6--6-----3--3-----6--6-----3--4-------------5---3---3-----| 
A|--3--3--3--3-----3--3--3--3--------------1--1--------------1----------------3---4---1-----| 
E|--1--1--1--1------------------------------------------------------------------------------| 


Pre-Chorus/Bridge 1 

e|--1-----1-----1-----| 
B|--1-----3-----2-----| 
G|--1-----1-----3-----| (x4) 
D|--1-----3-----4-----| 
A|--3-----1-----------| 
E|--1-----------------| 


Pre-Chorus/Bridge 2  

e|--1----1----1----3-------| 
B|--1----3----1----3-------| 
G|--2----3----1----3-------| (x5) 
D|--3----1----3----5-------| 
A|------------4----6-------| 
E|-----------------6-------| 


Chorus/Outro "Out of my mind..." 

e|--5--5----3--3----9---9-----1--1-----| 
B|--5--5----3--3----9---9-----1--1-----| 
G|--5--5----3--3----9---9-----1--1-----| (x5) 
D|--7--7----5--5----10--10----3--3-----| 
A|--8--8----6--6----11--11----4--4-----| 
E|--8--8----6--6----11--11----4--4-----| 

e|--5--5----6--6----9---9-----1--1-----| 
B|--5--5----6--6----9---9-----1--1-----| 
G|--5--5----6--6----9---9-----1--1-----| (x3) 
D|--7--7----8--8----10--10----3--3-----| 
A|--8--8----9--9----11--11----4--4-----| 
E|--8--8----9--9----11--11----4--4-----| 

e|--5--5----3--3----1---| 
B|--5--5----3--3----1---| 
G|--5--5----3--3----1---|  
D|--7--7----5--5----3---| 
A|--8--8----6--6----4---| 
E|--8--8----6--6----4---| 
  

top 5 | syd arthur
top rock'n roll
Outras músicas do artista letras do(a) Syd Arthur
Top cifras »Top artistas »
Petaxxon Comunicação Online
Cifras.com.br - Melhor e mais completo site de cifras e tablaturas do Brasil
Mais de 1 milhão de acordes de músicas cadastradas desde 2003
As informações contidas no nosso site são colaborações de seus usuários e podem conter erros, sendo assim, não nos responsabilizamos sobre nenhuma destas.
close
menos
mais
close
Cor dos acordes:

Cor da letra:

 

save
close
close
 
redimensionar