Cifras e Tablaturas
Syd Matters

Syd Matters

Lost Bird

Cifras Cancelar Versão de Impressão
cifras

Syd Matters - Lost Bird

fixar na tela  
Exibindo: vídeo-aula ver clipes redimensionar

Tom:

  
Intro 
d|------------|------------|------------|------------|------------|------------|------------|------------| 
a|------------|------------|------------|------------|------------|------------|------------|------------| 
g|------------|------------|------------|------------|------------|------------|------------|------------| 
D|----0---0---|----0---0---|----0---0---|----0---0---|----0---0---|----0---0---|----0---0---|----0---0---| 
A|1-----------|1-----------|1-----------|1-----------|1-----------|1-----------|1-----------|1-----------| 
D|------------|------------|------------|------------|------------|------------|------------|------------|  

d|------------|------------|------------|------------|------------|------------|------------|------------| 
a|3-----3-----|------3-----|------3-----|------3-----|------3-----|------3-----|------3-----|------3-----| 
g|--3-------3-|--3-------0-|--0-------0-|--0-------0-|--3-------3-|--3-------0-|--0-------0-|--0-------0-| 
D|----0---0---|----0---0---|----1---1---|----1---1---|----0---0---|----0---0---|----1---1---|----1---1---| 
A|1-----------|1-----------|3-----------|3-----------|1-----------|1-----------|3-----------|3-----------| 
D|------------|------------|------------|------------|------------|------------|------------|------------|  

d|------------|------------|------------|------------|------------|------------|------------|------------| 
a|3-----3-----|------3-----|------3-----|------3-----|------3-----|------3-----|------3-----|------3-----| 
g|--3-------3-|--3-------0-|--0-------0-|--0-------0-|--3-------3-|--3-------0-|--0-------0-|--0-------0-| 
D|----0---0---|----0---0---|----1---1---|----1---1---|----0---0---|----0---0---|----1---1---|----1---1---| 
A|1-----------|1-----------|3-----------|3-----------|1-----------|1-----------|3-----------|3-----------| 
D|------------|------------|------------|------------|------------|------------|------------|------------|  

verse 1 
d|------------|------------|------------|------------|------------|------------|------------|------------| 
a|3-----3-----|------3-----|------3-----|------3-----|------3-----|------3-----|------3-----|------3-----| 
g|--3-------3-|--3-------0-|--0-------0-|--0-------0-|--3-------3-|--3-------0-|--0-------0-|--0-------0-| 
D|----0---0---|----0---0---|----1---1---|----1---1---|----0---0---|----0---0---|----1---1---|----1---1---| 
A|1-----------|1-----------|3-----------|3-----------|1-----------|1-----------|3-----------|3-----------| 
D|------------|------------|------------|------------|------------|------------|------------|------------|  
  Small        eyes,            tiny  heart.                  Your journey has  worn you  out. 

d|------------|------------|------------|------------|------------|------------|------------|------------| 
a|------3-----|------3-----|------3-----|------3-----|------0-----|------0-----|------0-----|------0-----| 
g|--3-------3-|--3-------0-|--0-------0-|--0-------0-|--2-------2-|--2-------3-|--3-------3-|--3-------3-| 
D|----0---0---|----0---0---|----1---1---|----1---1---|----4---4---|----4---0---|----0---0---|----0---0---| 
A|1-----------|1-----------|3-----------|3-----------|------------|------------|------------|------------| 
D|------------|------------|------------|------------|0-----------|0-----------|5-----------|5-----------|  
      I   see  nothing but  shame        in your smile.                  Mm-mm,                    a lost 

d|------------|------------|------------|------------|------------|------------| 
a|------0-----|------0-----|------0-----|------0-----|------0-----|------0-----| 
g|--3-------3-|--3-------3-|--0-------0-|--0-------0-|--0-------0-|--0-------0-| 
D|----5---5---|----5---5---|----4---4---|----4---4---|----4---4---|----4---4---| 
A|4-----------|4-----------|------------|------------|------------|------------| 
D|------------|------------|0-----------|0-----------|0-----------|0-----------|  
      bird's       flying       high. 

verse 2 
d|------------|------------|------------|------------|------------|------------|------------|------------| 
a|3-----3-----|------3-----|3-----3-----|------3-----|3-----3-----|------3-----|------3-----|------3-----| 
g|--3-------3-|--3-------0-|--0-------0-|--0-------0-|--3-------3-|--3-------0-|--0-------0-|--0-------0-| 
D|----0---0---|----0---0---|----1---1---|----1---1---|----0---0---|----0---0---|----1---1---|----1---1---| 
A|1-----------|1-----------|3-----------|3-----------|1-----------|1-----------|3-----------|3-----------| 
D|------------|------------|------------|------------|------------|------------|------------|------------|  
  Old        face,              tired ears.                   Wrong turnings and souvenirs. 

d|------------|------------|------------|------------|------------|------------|------------|------------| 
a|3-----3-----|------3-----|------3-----|------3-----|------0-----|------0-----|------0-----|------0-----| 
g|--3-------3-|--3-------0-|--0-------0-|--0-------0-|--2-------2-|--2-------3-|--3-------3-|--3-------3-| 
D|----0---0---|----0---0---|----1---1---|----1---1---|----4---4---|----4---0---|----0---0---|----0---0---| 
A|1-----------|1-----------|3-----------|3-----------|------------|------------|------------|------------| 
D|------------|------------|------------|------------|0-----------|0-----------|5-----------|5-----------|  
      I   see  hundres of   memories     when you sigh.                   Mm-mm,                   a lost 

d|------------|------------|------------|------------|------------|------------| 
a|------0-----|------0-----|------0-----|------0-----|------0-----|------0-----| 
g|--3-------3-|--3-------3-|--0-------0-|--0-------0-|--0-------0-|--0-------0-| 
D|----5---5---|----5---5---|----4---4---|----4---4---|----4---4---|----4---4---| 
A|4-----------|4-----------|------------|------------|------------|------------| 
D|------------|------------|0-----------|0-----------|0-----------|0-----------| 
      bird             remembers. 

Chorus 1 
d|------------|------------|------------|------------|------------|------------|------------|------------| 
a|------1-----|------1-----|------3-----|------0-----|------1-----|------1-----|------3-----|------0-----| 
g|--0-------0-|--0-------0-|--3-------3-|--3-------0-|--0-------0-|--0-------0-|--3-------3-|--3-------0-| 
D|----1---1---|----1---1---|----0---0---|----0---0---|----1---1---|----1---1---|----0---0---|----0---0---| 
A|3-----------|3-----------|1-----------|1-----------|3-----------|3-----------|1-----------|1-----------| 
D|------------|------------|------------|------------|------------|------------|------------|------------| 
  Come on,                  choose a day                      to   say what you have to say, 

d|------------|------------|------------|------------|------------|------------|------------|------------| 
a|------1-----|------1-----|------3-----|------0-----|------0-----|------0-----|------0-----|------0-----| 
g|--0-------0-|--0-------0-|--3-------3-|--3-------0-|--2-------2-|--2-------2-|--2-------2-|--2-------3-| 
D|----1---1---|----1---1---|----0---0---|----0---0---|----4---4---|----4---4---|----4---4---|----4---0---| 
A|3-----------|3-----------|1-----------|1-----------|------------|------------|------------|------------| 
D|------------|------------|------------|------------|0-----------|0-----------|0-----------|0-----------| 
          to   ask me  to   come and play in the clouds.                                           Mm-mm, 

d|------------|------------|------------|------------|------------|------------|------------|------------| 
a|------0-----|------0-----|------0-----|------0-----|------0-----|------0-----|------0-----|------0-----| 
g|--3-------3-|--3-------3-|--3-------3-|--3-------3-|--0-------0-|--0-------0-|--5-------5-|--5-------5-| 
D|----0---0---|----0---0---|----5---5---|----5---5---|----0---0---|----0---0---|----4---4---|----4---4---| 
A|------------|------------|4-----------|4-----------|6-----------|6-----------|6-----------|6-----------| 
D|5-----------|5-----------|------------|------------|------------|------------|------------|------------| 
                     I'm a lost bird         in a         clear                 sky.    

d|------------|------------|------------|------------|------------|------------|------------|------------| 
a|------0-----|------0-----|------0-----|3-----3-----|------3-----|------3-----|------3-----|------0-----| 
g|--3-------3-|--2-------2-|--0-------0-|--3-------0-|--0-------0-|--0-------0-|--0-------0-|--0-------0-| 
D|----0---0---|----0---0---|----0---0---|----0---0---|----1---1---|----1---1---|----1---1---|----1---1---| 
A|------------|------------|------------|1-----------|------------|------------|------------|------------| 
D|5-----------|4-----------|3-----------|------------|1-----------|1-----------|1-----------|1-----------| 

d|------------|------------|------------|------------|------------|------------|------------|------------| 
a|------0-----|------0-----|------0-----|3-----3-----|------3-----|------3-----|------3-----|------3-----| 
g|--3-------3-|--2-------2-|--0-------0-|--3-------0-|--0-------0-|--0-------0-|--0-------0-|--0-------0-| 
D|----0---0---|----0---0---|----0---0---|----0---0---|----1---1---|----1---1---|----1---1---|----1---1---| 
A|------------|------------|------------|1-----------|------------|------------|------------|------------| 
D|5-----------|4-----------|3-----------|------------|1-----------|1-----------|1-----------|1-----------| 

verse 3 
d|------------|------------|------------|------------|------------|------------|------------|------------| 
a|3-----3-----|------3-----|------3-----|------3-----|------3-----|------3-----|------3-----|------3-----| 
g|--3-------3-|--3-------0-|--0-------0-|--0-------0-|--3-------3-|--3-------0-|--0-------0-|--0-------0-| 
D|----0---0---|----0---0---|----1---1---|----1---1---|----0---0---|----0---0---|----1---1---|----1---1---| 
A|1-----------|1-----------|3-----------|3-----------|1-----------|1-----------|3-----------|3-----------| 
D|------------|------------|------------|------------|------------|------------|------------|------------|  
  Slow         down,            need  a  rest.                We'll settle around   your     nest. 

d|------------|------------|------------|------------|------------|------------|------------|------------| 
a|------3-----|------3-----|------3-----|------3-----|------0-----|------0-----|------0-----|------0-----| 
g|--3-------3-|--3-------0-|--0-------0-|--0-------0-|--2-------2-|--2-------3-|--3-------3-|--3-------3-| 
D|----0---0---|----0---0---|----1---1---|----1---1---|----4---4---|----4---0---|----0---0---|----0---0---| 
A|1-----------|1-----------|3-----------|3-----------|------------|------------|------------|------------| 
D|------------|------------|------------|------------|0-----------|0-----------|5-----------|5-----------| 
          I    thought I could be your guest for a while. 

d|------------|------------|------------|------------|------------|------------| 
a|------0-----|------0-----|------0-----|------0-----|------0-----|------0-----| 
g|--3-------3-|--3-------3-|--0-------0-|--0-------0-|--0-------0-|--0-------0-| 
D|----5---5---|----5---5---|----4---4---|----4---4---|----4---4---|----4---4---| 
A|4-----------|4-----------|------------|------------|------------|------------| 
D|------------|------------|0-----------|0-----------|0-----------|0-----------| 

verse 4 
d|------------|------------|------------|------------|------------|------------|------------|------------| 
a|3-----3-----|------3-----|------3-----|------3-----|------3-----|------3-----|------3-----|------3-----| 
g|--3-------3-|--3-------0-|--0-------0-|--0-------0-|--3-------3-|--3-------0-|--0-------0-|--0-------0-| 
D|----0---0---|----0---0---|----1---1---|----1---1---|----0---0---|----0---0---|----1---1---|----1---1---| 
A|1-----------|1-----------|3-----------|3-----------|1-----------|1-----------|3-----------|3-----------| 
D|------------|------------|------------|------------|------------|------------|------------|------------|  
  I've had     my           wing    for rent.                 I    fly     by   accident. 

d|------------|------------|------------|------------|------------|------------|------------|------------| 
a|------3-----|------3-----|------3-----|------3-----|------0-----|------0-----|------0-----|------0-----| 
g|--3-------3-|--3-------0-|--0-------0-|--0-------0-|--2-------2-|--2-------2-|--2-------2-|--2-------0-| 
D|----0---0---|----0---0---|----1---1---|----1---1---|----4---4---|----4---4---|----4---4---|----4---0---| 
A|1-----------|1-----------|3-----------|3-----------|------------|------------|------------|------------| 
D|------------|------------|------------|------------|0-----------|0-----------|0-----------|0-----------| 
      I've     never        been a saint; it's a lie.                                              Mm-mm. 

Bridge/Instrumental 
d|------1-----|------1-----|------------|------------|------------|------------|------1-----|------1-----| 
a|----1---1---|----1---1---|------0-----|------0-----|------0-----|------0-----|--1-------1-|--1-------1-| 
g|--0-------0-|--0-------0-|----3---3---|----3---3---|--2-------2-|--2-------0-|----0---0---|------------| 
D|------------|------------|--0-------0-|--0-------0-|----3---3---|----3---0---|------------|----0---0---| 
A|------------|------------|------------|------------|------------|------------|1-----------|1-----------| 
D|1-----------|1-----------|5-----------|5-----------|3-----------|3-----------|------------|------------| 

d|------1-----|------1-----|------------|------------|------0-----|------0-----|------0-----|------0-----| 
a|----1---1---|----1---1---|------0-----|------0-----|------------|------------|------------|------------| 
g|--0-------0-|--0-------0-|----3---3---|----3---3---|--0-------0-|--0-------0-|--0-------0-|--0-------0-| 
D|1-----------|1-----------|--0-------0-|--0-------0-|----4---4---|----4---4---|----4---4---|----4---4---| 
A|------------|------------|5-----------|------------|------------|------------|------------|------------| 
D|------------|------------|------------|5-----------|0-----------|0-----------|0-----------|0-----------| 

Chorus 2 
d|------------|------------|------------|------------|------------|------------|------------|------------| 
a|------1-----|------1-----|------3-----|------0-----|------1-----|------1-----|------3-----|------0-----| 
g|--0-------0-|--0-------0-|--3-------3-|--3-------0-|--0-------0-|--0-------0-|--3-------3-|--3-------0-| 
D|----1---1---|----1---1---|----0---0---|----0---0---|----1---1---|----1---1---|----0---0---|----0---0---| 
A|3-----------|3-----------|1-----------|1-----------|3-----------|3-----------|1-----------|1-----------| 
D|------------|------------|------------|------------|------------|------------|------------|------------| 
  So come on,               give a  hand.                     Welcome  me       as a friend, 

d|------------|------------|------------|------------|------------|------------|------------|------------| 
a|------1-----|------1-----|------3-----|------0-----|------0-----|------0-----|------0-----|------0-----| 
g|--0-------0-|--0-------0-|--3-------3-|--3-------0-|--2-------2-|--2-------2-|--2-------2-|--2-------3-| 
D|----1---1---|----1---1---|----0---0---|----0---0---|----4---4---|----4---4---|----4---4---|----4---0---| 
A|3-----------|3-----------|1-----------|1-----------|------------|------------|------------|------------| 
D|------------|------------|------------|------------|0-----------|0-----------|0-----------|0-----------| 
      free     to  come     back again   anytime.                                                  Mm-mm, 

d|------------|------------|------------|------------|------------|------------|------------|------------| 
a|------0-----|------0-----|------0-----|------0-----|------0-----|------0-----|------0-----|------0-----| 
g|--3-------3-|--3-------3-|--3-------3-|--3-------3-|--0-------0-|--0-------0-|--5-------5-|--5-------5-| 
D|----0---0---|----0---0---|----5---5---|----5---5---|----0---0---|----0---0---|----4---4---|----4---4---| 
A|------------|------------|4-----------|4-----------|6-----------|6-----------|6-----------|6-----------| 
D|5-----------|5-----------|------------|------------|------------|------------|------------|------------| 
                     I'm a lost bird         in a         clear                 sky.    

d|------------|------------|------------|------------|------------|------------|------------|------------| 
a|------0-----|------0-----|------0-----|3-----3-----|------3-----|------3-----|------3-----|------0-----| 
g|--3-------3-|--2-------2-|--0-------0-|--3-------0-|--0-------0-|--0-------0-|--0-------0-|--0-------0-| 
D|----0---0---|----0---0---|----0---0---|----0---0---|----1---1---|----1---1---|----1---1---|----1---1---| 
A|------------|------------|------------|1-----------|------------|------------|------------|------------| 
D|5-----------|4-----------|3-----------|------------|1-----------|1-----------|1-----------|1-----------| 

d|------------|------------|------------|------------|------------|------------|------------|------------| 
a|------0-----|------0-----|------0-----|3-----3-----|------3-----|------3-----|------3-----|------0-----| 
g|--3-------3-|--2-------2-|--0-------0-|--3-------0-|--0-------0-|--0-------0-|--0-------0-|--0-------0-| 
D|----0---0---|----0---0---|----0---0---|----0---0---|----1---1---|----1---1---|----1---1---|----1---1---| 
A|------------|------------|------------|1-----------|------------|------------|------------|------------| 
D|5-----------|4-----------|3-----------|------------|1-----------|1-----------|1-----------|1-----------| 

Outro 
  (The first 3 lines are played 3 times until the end. I've tabbed it all out for your convenience.) 
  1 
d|------------|------------|------------|------------|------------|------------|------------|------------| 
a|------0-----|------0-----|------0-----|3-----0-----|------0-----|------0-----|------0-----|------0-----| 
g|--0-------0-|--0-------0-|--0-------0-|--3-------3-|--3-------3-|--3-------3-|--3-------3-|--3-------0-| 
D|----0---0---|----0---0---|----0---0---|----0---0---|----0---0---|----0---0---|----0---0---|----0---0---| 
A|------------|------------|------------|1-----------|------------|------------|------------|------------| 
D|5-----------|3-----------|2-----------|------------|1-----------|1-----------|1-----------|1-----------| 

d|------------|------------|------------|------------|------------|------------|------------|------------| 
a|------0-----|------0-----|------0-----|3-----0-----|------0-----|------0-----|------0-----|------0-----| 
g|--0-------0-|--0-------0-|--0-------0-|--3-------3-|--3-------3-|--3-------3-|--3-------3-|--3-------0-| 
D|----0---0---|----0---0---|----0---0---|----0---0---|----0---0---|----0---0---|----0---0---|----0---0---| 
A|------------|------------|------------|1-----------|------------|------------|------------|------------| 
D|5-----------|3-----------|2-----------|------------|1-----------|1-----------|1-----------|1-----------| 

d|------------|------------|------------|------------|------------|------------|------------|------------| 
a|------0-----|------0-----|------3-----|------3-----|------3-----|------3-----|------3-----|------3-----| 
g|--0-------0-|--0-------0-|--0-------0-|--0-------0-|--3-------3-|--3-------3-|--3-------3-|--3-------0-| 
D|----0---0---|----0---0---|----1---1---|----1---1---|----0---0---|----0---0---|----0---0---|----0---0---| 
A|------------|------------|3-----------|------------|1-----------|1-----------|1-----------|1-----------| 
D|5-----------|3-----------|------------|1-----------|------------|------------|------------|------------| 

  2 
d|------------|------------|------------|------------|------------|------------|------------|------------| 
a|------0-----|------0-----|------0-----|3-----0-----|------0-----|------0-----|------0-----|------0-----| 
g|--0-------0-|--0-------0-|--0-------0-|--3-------3-|--3-------3-|--3-------3-|--3-------3-|--3-------0-| 
D|----0---0---|----0---0---|----0---0---|----0---0---|----0---0---|----0---0---|----0---0---|----0---0---| 
A|------------|------------|------------|1-----------|------------|------------|------------|------------| 
D|5-----------|3-----------|2-----------|------------|1-----------|1-----------|1-----------|1-----------| 

d|------------|------------|------------|------------|------------|------------|------------|------------| 
a|------0-----|------0-----|------0-----|3-----0-----|------0-----|------0-----|------0-----|------0-----| 
g|--0-------0-|--0-------0-|--0-------0-|--3-------3-|--3-------3-|--3-------3-|--3-------3-|--3-------0-| 
D|----0---0---|----0---0---|----0---0---|----0---0---|----0---0---|----0---0---|----0---0---|----0---0---| 
A|------------|------------|------------|1-----------|------------|------------|------------|------------| 
D|5-----------|3-----------|2-----------|------------|1-----------|1-----------|1-----------|1-----------| 

d|------------|------------|------------|------------|------------|------------|------------|------------| 
a|------0-----|------0-----|------3-----|------3-----|------3-----|------3-----|------3-----|------3-----| 
g|--0-------0-|--0-------0-|--0-------0-|--0-------0-|--3-------3-|--3-------3-|--3-------3-|--3-------0-| 
D|----0---0---|----0---0---|----1---1---|----1---1---|----0---0---|----0---0---|----0---0---|----0---0---| 
A|------------|------------|3-----------|------------|1-----------|1-----------|1-----------|1-----------| 
D|5-----------|3-----------|------------|1-----------|------------|------------|------------|------------| 

  3 
d|------------|------------|------------|------------|------------|------------|------------|------------| 
a|------0-----|------0-----|------0-----|3-----0-----|------0-----|------0-----|------0-----|------0-----| 
g|--0-------0-|--0-------0-|--0-------0-|--3-------3-|--3-------3-|--3-------3-|--3-------3-|--3-------0-| 
D|----0---0---|----0---0---|----0---0---|----0---0---|----0---0---|----0---0---|----0---0---|----0---0---| 
A|------------|------------|------------|1-----------|------------|------------|------------|------------| 
D|5-----------|3-----------|2-----------|------------|1-----------|1-----------|1-----------|1-----------| 

d|------------|------------|------------|------------|------------|------------|------------|------------| 
a|------0-----|------0-----|------0-----|3-----0-----|------0-----|------0-----|------0-----|------0-----| 
g|--0-------0-|--0-------0-|--0-------0-|--3-------3-|--3-------3-|--3-------3-|--3-------3-|--3-------0-| 
D|----0---0---|----0---0---|----0---0---|----0---0---|----0---0---|----0---0---|----0---0---|----0---0---| 
A|------------|------------|------------|1-----------|------------|------------|------------|------------| 
D|5-----------|3-----------|2-----------|------------|1-----------|1-----------|1-----------|1-----------| 

d|------------|------------|------------|------------|------------|------------|------------|------------| 
a|------0-----|------0-----|------3-----|------3-----|------3-----|------3-----|------3-----|------3-----| 
g|--0-------0-|--0-------0-|--0-------0-|--0-------0-|--3-------3-|--3-------3-|--3-------3-|--3-------0-| 
D|----0---0---|----0---0---|----1---1---|----1---1---|----0---0---|----0---0---|----0---0---|----0---0---| 
A|------------|------------|3-----------|------------|1-----------|1-----------|1-----------|1-----------| 
D|5-----------|3-----------|------------|1-----------|------------|------------|------------|------------| 

  End 
d|------------|------------|------------|------------|| 
a|------------|------------|------------|------------|| 
g|------------|------------|------------|------------|| 
D|------------|------------|------------|------------|| 
A|1-----------|------------|------------|------------|| 
D|------------|------------|------------|------------|| 
  

top 5 | syd matters
top rock'n roll
Outras músicas do artista letras do(a) Syd Matters
Top cifras »Top artistas »
Petaxxon Comunicação Online
Cifras.com.br - Melhor e mais completo site de cifras e tablaturas do Brasil
Mais de 1 milhão de acordes de músicas cadastradas desde 2003
As informações contidas no nosso site são colaborações de seus usuários e podem conter erros, sendo assim, não nos responsabilizamos sobre nenhuma destas.
close
menos
mais
close
Cor dos acordes:

Cor da letra:

 

save
close
close
 
redimensionar