Cifras e Tablaturas
System Of A Down

System Of A Down

Lonely Day (live)

Cifras Cancelar Versão de Impressão
cifras

System Of A Down - Lonely Day (live)

fixar na tela  
Exibindo: vídeo-aula ver clipes redimensionar
  Here is the live version : https://www.youtube.com/watch?v=nwVqbZJUTPA 

This is my first tab 

verse 1 
D#|-------------------------------------------------------| 
A#|--------1-----------0-----------1-----------0----------| 
F#|------2---2-------2---2-------0---0-------1---1--------|   
C#|----2-------2---0-------0---2-------2---2-------2------|  (x2 when the song starts) 
G#|--0-----------------------3----------------------------|  (x4 when the singing starts)  
C#|--------------3-----------------------2----------------| 

Chorus 
D#|--------------------------------------------------| 
A#|--------------------------------------------------| 
F#|-2--2-2-2--------------5--5-5-5-------------------| 
C#|-2--2-2-2---3--3-3-3---5--5-5-5---2--2-2-2--------| (x2) 
G#|-0--0-0-0---3--3-3-3---3--3-3-3---2--2-2-2--------| 
C#|------------3--3-3-3--------------2--2-2-2--------| 

verse 2 
D#|-------------------------------------------------------| 
A#|--------1-----------0-----------1-----------0----------| 
F#|------2---2-------2---2-------0---0-------1---1--------|  (x4)   
C#|----2-------2---0-------0---2-------2---2-------2------|  
G#|--0-----------------------3----------------------------|    
C#|--------------3-----------------------2----------------| 

Hook 

D#|-------------------------------------------------------------------------| 
A#|-------------------------------------------------------------------------| 
F#|-------------------------------------------------------------------------| 
C#|-3--3-3-3---2--2-2-2---5--5-5-5---7--7-7-7-------------------------------| (x2) 
G#|-3--3-3-3---2--2-2-2---5--5-5-5---7--7-7-7-------------------------------| 
C#|-3--3-3-3---2--2-2-2---5--5-5-5---7--7-7-7-------------------------------| 

D#|-----------------------------| 
A#|-----------------------------| 
F#|-----------------------------| 
C#|-3----2----------------------| 
G#|-3----2----------------------| 
C#|-3----2----------------------| 
    pm   pm 
   (x12)(x12)  


SOLO 
D#|--------------------------------------------------------------------------------------------------------| 
A#|--10-10-10----------------------------------------------------------------------------------------------| 
F#|-----------12-10-9-10-9---------------------------------------9-12b14--10-9-10--9h10p9-----9----------9-| 
C#|------------------------12-10-9-9-7-7-7-9-7-7-7-10-7-7-12-7-7--------------------------12----12-10-12---| 
G#|--------------------------------------------------------------------------------------------------------| 
C#|--------------------------------------------------------------------------------------------------------| 
             

    (TREMOLO PICK WHEN 15/17 STARTS AT A# STRING) (STOP TREMOLO PICK AT LAST 2 10'S AT A# STRING  
                                                                  and slightly bend the last one)  
D#|--------------------------------------------------------------------------------------------------------| 
A#|--15/17--15-17-15-13-15-13-12-13-15-13-12-13-12-------------------------------------10--10-10-10-10-10b-| 
F#|------------------------------------------------14-12-14-12-10-12-10-9-10-9-9-10-12---------------------| 
C#|--------------------------------------------------------------------------------------------------------| 
G#|--------------------------------------------------------------------------------------------------------| 
C#|--------------------------------------------------------------------------------------------------------| 

D#|--------------------------------------------------------------------------------------------------------| 
A#|--------------------------------------------------------------------------------------------------------| 
F#|-10-9---------------------------------------------------------------------------------------------------| 
C#|------10-12-9-10-7-9-7----------------------------------------------------------------------------------| 
G#|--------------------------------------------------------------------------------------------------------| 
C#|--------------------------------------------------------------------------------------------------------| 

(just before the bridge i believe that it suits just fine to add a 
 pinch harmonic specificaly at the G# string 4th fret and vibrate it) 



Bridge 
D#|-------------------------------------------------------------------------| 
A#|-------------------------------------------------------------------------| 
F#|-2--2-2-2--------------5--5-5-5------------------------------------------| 
C#|-2--2-2-2---3--3-3-3---5--5-5-5---2--2-2-2-------------------------------|(x2) 
G#|-0--0-0-0---3--3-3-3---3--3-3-3---2--2-2-2-3-2-3-2-----------------------| 
C#|------------3--3-3-3--------------2--2-2-2-------------------------------| 

D#|-------------------------------------------------------------------------| 
A#|-------------------------------------------------------------------------| 
F#|-2--2-2-2--------------5--5-5-5------------------------------------------| 
C#|-2--2-2-2---3--3-3-3---5--5-5-5---2--2-2-2-------------------------------|(x1) 
G#|-0--0-0-0---3--3-3-3---3--3-3-3---2--2-2-2-------------------------------| 
C#|------------3--3-3-3--------------2--2-2-2-------------------------------| 

D#|-------------------------------------------------------------------------| 
A#|-------------------------------------------------------------------------| 
F#|-2--2-2-2--------------5--5-5-5------------------------------------------| 
C#|-2--2-2-2---3--3-3-3---5--5-5-5---2--2-2-2-------------------------------|(x1 and a liiitle bit slower) 
G#|-0--0-0-0---3--3-3-3---3--3-3-3---2--2-2-2-3-2-3-2-----------------------| 
C#|------------3--3-3-3--------------2--2-2-2-------------------------------| 


Outro 

D#|-------------------------------------------------------| 
A#|--------1-----------0-----------1-----------0----------| 
F#|------2---2-------2---2-------0---0-------1---1--------|  (the first time with normal speed) 
C#|----2-------2---0-------0---2-------2---2-------2------|  (the second time which is the last time  
G#|--0-----------------------3----------------------------|   at the last notes start playing it slower) 
C#|--------------3-----------------------2----------------| 

at the studio version it's this little thing at the ending  
D#|-------------------------------------------------------------------------| 
A#|-------------10----------------------------------------------------------| 
F#|---9--9------------------------------------------------------------------| 
C#|-------------------------------------------------------------------------| 
G#|-----7---7---------------------------------------------------------------| 
C#|-------------------------------------------------------------------------| 



************************************ 

| h  Hammer-on 
| p  Pull-off 
| b  Bend 
| /  Slide up  

************************************ 
  

top 5 | system of a down
top numetal
Outras músicas do artista letras do(a) System Of A Down
Top cifras »Top artistas »
Petaxxon Comunicação Online
Cifras.com.br - Melhor e mais completo site de cifras e tablaturas do Brasil
Mais de 1 milhão de acordes de músicas cadastradas desde 2003
As informações contidas no nosso site são colaborações de seus usuários e podem conter erros, sendo assim, não nos responsabilizamos sobre nenhuma destas.
close
menos
mais
close
Cor dos acordes:

Cor da letra:

 

save
close
close
 
redimensionar