Cifras e Tablaturas
Temples

Temples

Roman Godlike Man

Cifras Cancelar Versão de Impressão
cifras

Temples - Roman Godlike Man

fixar na tela  
Exibindo: vídeo-aula ver clipes redimensionar
  
Intro 
Part 1 
(Guitar 1 + 2) 
e|--------------| 
B|--------------| 
G|-7/4-4--7/2-2-| x2 
D|-7/4-4--7/2-2-| 
A|-5/2-2--5/0-0-| 
E|--------------| 

Part 2 
(Guitar 1) 
e|-2-2-2-2-2-2-2-2-2-2-2-2-2-2-2-2-| 
B|-3-3-3-3-3-3-3-3-3-3-3-3-3-3-3-3-| 
G|-2-2-2-2-2-2-2-2-2-2-2-2-2-2-2-2-| x2 
D|---------------------------------| 
A|---------------------------------| 
E|---------------------------------| 
(Guitar 2) 
e|---------------------------------| 
B|-7-7-7-7-7-7-7-7-7-7-7-7-7-7-7-7-| 
G|-7-7-7-7-7-7-7-7-7-7-7-7-7-7-7-7-| x2 
D|-7-7-7-7-7-7-7-7-7-7-7-7-7-7-7-7-| 
A|-5-5-5-5-5-5-5-5-5-5-5-5-5-5-5-5-| 
D|---------------------------------| 

Verse 

(Guitar 1) 
e|-2-2-2-2-2-2-2-2-2-2-2-2-2-2-2-2-| 
B|-3-3-3-3-3-3-3-3-3-3-3-3-3-3-3-3-| 
G|-2-2-2-2-2-2-2-2-2-2-2-2-2-2-2-2-| 
D|---------------------------------| 
A|---------------------------------| 
E|---------------------------------| 
(Guitar 2) 
e|---------------------------------| 
B|-7-7-7-7-7-7-7-7-7-7-7-7-7-7-7-7-| 
G|-7-7-7-7-7-7-7-7-7-7-7-7-7-7-7-7-| 
D|-7-7-7-7-7-7-7-7-7-7-7-7-7-7-7-7-| 
A|-5-5-5-5-5-5-5-5-5-5-5-5-5-5-5-5-| 
D|---------------------------------| 
   Owe what to clare for man 

(Guitar 1) 
e|-2-2-2-2-2-2-2-2-2-2-2-2-2-2-2-2-| 
B|-3-3-3-3-3-3-3-3-3-3-3-3-3-3-3-3-| 
G|-2-2-2-2-2-2-2-2-2-2-2-2-2-2-2-2-| 
D|---------------------------------| 
A|---------------------------------| 
E|---------------------------------| 
(Guitar 2) 
e|---------------------------------| 
B|-7-7-7-7-7-7-7-7-7-7-7-7-7-7-7-7-| 
G|-7-7-7-7-7-7-7-7-7-7-7-7-7-7-7-7-| 
D|-7-7-7-7-7-7-7-7-7-7-7-7-7-7-7-7-| 
A|-5-5-5-5-5-5-5-5-5-5-5-5-5-5-5-5-| 
D|---------------------------------| 
   And promise to never smile 

(Guitar 1) 
e|-2-2-2-2-2-2-2-2-2-2-2-2-2-2-2-2-| 
B|-3-3-3-3-3-3-3-3-3-3-3-3-3-3-3-3-| 
G|-2-2-2-2-2-2-2-2-2-2-2-2-2-2-2-2-| 
D|---------------------------------| 
A|---------------------------------| 
E|---------------------------------| 
(Guitar 2) 
e|---------------------------------| 
B|-7-7-7-7-7-7-7-7-7-7-7-7-7-7-7-7-| 
G|-7-7-7-7-7-7-7-7-7-7-7-7-7-7-7-7-| 
D|-7-7-7-7-7-7-7-7-7-7-7-7-7-7-7-7-| 
A|-5-5-5-5-5-5-5-5-5-5-5-5-5-5-5-5-| 
D|---------------------------------| 
   Living inside the lifelong dream 

(Guitar 1) 
e|-2-2-2-2-2-2-2-2-2-2-2-2-2-2-2-2-| 
B|-3-3-3-3-3-3-3-3-3-3-3-3-3-3-3-3-| 
G|-2-2-2-2-2-2-2-2-2-2-2-2-2-2-2-2-| 
D|---------------------------------| 
A|---------------------------------| 
E|---------------------------------| 
(Guitar 2) 
e|---------------------------------| 
B|-7-7-7-7-7-7-7-7-7-7-7-7-7-7-7-7-| 
G|-7-7-7-7-7-7-7-7-7-7-7-7-7-7-7-7-| 
D|-7-7-7-7-7-7-7-7-7-7-7-7-7-7-7-7-| 
A|-5-5-5-5-5-5-5-5-5-5-5-5-5-5-5-5-| 
D|---------------------------------| 
   Never a part through his fantasy 

(Guitar 1) 
e|-7--7--7--7--7--7--7--7--7--7--7--7--7--7--7--7--| 
B|-8--8--8--8--8--8--8--8--8--8--8--8--8--8--8--8--| 
G|-7--7--7--7--7--7--7--7--7--7--7--7--7--7--7--7--| 
D|-------------------------------------------------| 
A|-------------------------------------------------| 
E|-------------------------------------------------| 
(Guitar 2) 
e|-------------------------------------------------| 
B|-12-12-12-12-12-12-12-12-12-12-12-12-12-12-12-12-| 
G|-12-12-12-12-12-12-12-12-12-12-12-12-12-12-12-12-| 
D|-12-12-12-12-12-12-12-12-12-12-12-12-12-12-12-12-| 
A|-10-10-10-10-10-10-10-10-10-10-10-10-10-10-10-10-| 
D|-------------------------------------------------| 
   Owe what is come wrong now 

(Guitar 1) 
e|-7--7--7--7--7--7--7--7--7--7--7--7--7--7--7--7--| 
B|-8--8--8--8--8--8--8--8--8--8--8--8--8--8--8--8--| 
G|-7--7--7--7--7--7--7--7--7--7--7--7--7--7--7--7--| 
D|-------------------------------------------------| 
A|-------------------------------------------------| 
E|-------------------------------------------------| 
(Guitar 2) 
e|-------------------------------------------------| 
B|-12-12-12-12-12-12-12-12-12-12-12-12-12-12-12-12-| 
G|-12-12-12-12-12-12-12-12-12-12-12-12-12-12-12-12-| 
D|-12-12-12-12-12-12-12-12-12-12-12-12-12-12-12-12-| 
A|-10-10-10-10-10-10-10-10-10-10-10-10-10-10-10-10-| 
D|-------------------------------------------------| 
   This policy all you've got 

(Guitar 1) 
e|-2-2-2-2-2-2-2-2-2-2-2-2-2-2-2-2-2-2-2-2-2-2-2-2-2-2-2-2-2-2-2-| 
B|-3-3-3-3-3-3-3-3-3-3-3-3-3-3-3-3-3-3-3-3-3-3-3-3-3-3-3-3-3-3-3-| 
G|-2-2-2-2-2-2-2-2-2-2-2-2-2-2-2-2-2-2-2-2-2-2-2-2-2-2-2-2-2-2-2-| 
D|---------------------------------------------------------------| 
A|---------------------------------------------------------------| 
E|---------------------------------------------------------------| 
(Guitar 2) 
e|---------------------------------------------------------------| 
B|-7-7-7-7-7-7-7-7-7-7-7-7-7-7-7-7-7-7-7-7-7-7-7-7-7-7-7-7-7-7-7-| 
G|-7-7-7-7-7-7-7-7-7-7-7-7-7-7-7-7-7-7-7-7-7-7-7-7-7-7-7-7-7-7-7-| 
D|-7-7-7-7-7-7-7-7-7-7-7-7-7-7-7-7-7-7-7-7-7-7-7-7-7-7-7-7-7-7-7-| 
A|-5-5-5-5-5-5-5-5-5-5-5-5-5-5-5-5-5-5-5-5-5-5-5-5-5-5-5-5-5-5-5-| 
D|---------------------------------------------------------------| 
  I which it could be a god like man inside of your museum 

Chorus 

(Guitar 1 + 2) 
e|--------------| 
B|--------------| 
G|-7/4-4--7/2-2-| 
D|-7/4-4--7/2-2-| 
A|-5/2-2--5/0-0-| 
D|--------------| 
 So close per year, So 

(Guitar 1) 
e|-2-2-2-2-2-2-2-2-2-2-2-2-2-2-2-2-2-2-2-2-2-2-2-2-2-2-2-2-2-2-2-| 
B|-3-3-3-3-3-3-3-3-3-3-3-3-3-3-3-3-3-3-3-3-3-3-3-3-3-3-3-3-3-3-3-| 
G|-2-2-2-2-2-2-2-2-2-2-2-2-2-2-2-2-2-2-2-2-2-2-2-2-2-2-2-2-2-2-2-| x2 
D|---------------------------------------------------------------| 
A|---------------------------------------------------------------| 
E|---------------------------------------------------------------| 
(Guitar 2) 
e|---------------------------------------------------------------| 
B|-7-7-7-7-7-7-7-7-7-7-7-7-7-7-7-7-7-7-7-7-7-7-7-7-7-7-7-7-7-7-7-| 
G|-7-7-7-7-7-7-7-7-7-7-7-7-7-7-7-7-7-7-7-7-7-7-7-7-7-7-7-7-7-7-7-| x2 
D|-7-7-7-7-7-7-7-7-7-7-7-7-7-7-7-7-7-7-7-7-7-7-7-7-7-7-7-7-7-7-7-| 
A|-5-5-5-5-5-5-5-5-5-5-5-5-5-5-5-5-5-5-5-5-5-5-5-5-5-5-5-5-5-5-5-| 
D|---------------------------------------------------------------| 
   Fa Fa Fa Fa Fa Fa Fa Fa Fa Fa Fa Fa Fa Fa 

(Guitar 1 + 2) 
e|--------------| 
B|--------------| 
G|-7/4-4--7/2-2-| 
D|-7/4-4--7/2-2-| 
A|-5/2-2--5/0-0-| 
E|--------------| 
 So close per year, So 

(Guitar 1 + 2 Pause) 
 Never a roman godlike man inside of your museum 

Verse 

(Guitar 1) 
e|-2-2-2-2-2-2-2-2-2-2-2-2-2-2-2-2-| 
B|-3-3-3-3-3-3-3-3-3-3-3-3-3-3-3-3-| 
G|-2-2-2-2-2-2-2-2-2-2-2-2-2-2-2-2-| 
D|---------------------------------| 
A|---------------------------------| 
E|---------------------------------| 
(Guitar 2) 
e|---------------------------------| 
B|-7-7-7-7-7-7-7-7-7-7-7-7-7-7-7-7-| 
G|-7-7-7-7-7-7-7-7-7-7-7-7-7-7-7-7-| 
D|-7-7-7-7-7-7-7-7-7-7-7-7-7-7-7-7-| 
A|-5-5-5-5-5-5-5-5-5-5-5-5-5-5-5-5-| 
D|---------------------------------| 
  Look for the master plan 

(Guitar 1) 
e|-2-2-2-2-2-2-2-2-2-2-2-2-2-2-2-2-| 
B|-3-3-3-3-3-3-3-3-3-3-3-3-3-3-3-3-| 
G|-2-2-2-2-2-2-2-2-2-2-2-2-2-2-2-2-| 
D|---------------------------------| 
A|---------------------------------| 
E|---------------------------------| 
(Guitar 2) 
e|---------------------------------| 
B|-7-7-7-7-7-7-7-7-7-7-7-7-7-7-7-7-| 
G|-7-7-7-7-7-7-7-7-7-7-7-7-7-7-7-7-| 
D|-7-7-7-7-7-7-7-7-7-7-7-7-7-7-7-7-| 
A|-5-5-5-5-5-5-5-5-5-5-5-5-5-5-5-5-| 
D|---------------------------------| 
  Never wealthy shot 

(Guitar 1) 
e|-2-2-2-2-2-2-2-2-2-2-2-2-2-2-2-2-| 
B|-3-3-3-3-3-3-3-3-3-3-3-3-3-3-3-3-| 
G|-2-2-2-2-2-2-2-2-2-2-2-2-2-2-2-2-| 
D|---------------------------------| 
A|---------------------------------| 
E|---------------------------------| 
(Guitar 2) 
e|---------------------------------| 
B|-7-7-7-7-7-7-7-7-7-7-7-7-7-7-7-7-| 
G|-7-7-7-7-7-7-7-7-7-7-7-7-7-7-7-7-| 
D|-7-7-7-7-7-7-7-7-7-7-7-7-7-7-7-7-| 
A|-5-5-5-5-5-5-5-5-5-5-5-5-5-5-5-5-| 
D|---------------------------------| 
  Imagine a day without empire 

(Guitar 1) 
e|-2-2-2-2-2-2-2-2-2-2-2-2-2-2-2-2-| 
B|-3-3-3-3-3-3-3-3-3-3-3-3-3-3-3-3-| 
G|-2-2-2-2-2-2-2-2-2-2-2-2-2-2-2-2-| 
D|---------------------------------| 
A|---------------------------------| 
E|---------------------------------| 
(Guitar 2) 
e|---------------------------------| 
B|-7-7-7-7-7-7-7-7-7-7-7-7-7-7-7-7-| 
G|-7-7-7-7-7-7-7-7-7-7-7-7-7-7-7-7-| 
D|-7-7-7-7-7-7-7-7-7-7-7-7-7-7-7-7-| 
A|-5-5-5-5-5-5-5-5-5-5-5-5-5-5-5-5-| 
D|---------------------------------| 
  Use to the after light set on fire 

(Guitar 1) 
e|-7--7--7--7--7--7--7--7--7--7--7--7--7--7--7--7--| 
B|-8--8--8--8--8--8--8--8--8--8--8--8--8--8--8--8--| 
G|-7--7--7--7--7--7--7--7--7--7--7--7--7--7--7--7--| 
D|-------------------------------------------------| 
A|-------------------------------------------------| 
E|-------------------------------------------------| 
(Guitar 2) 
e|-------------------------------------------------| 
B|-12-12-12-12-12-12-12-12-12-12-12-12-12-12-12-12-| 
G|-12-12-12-12-12-12-12-12-12-12-12-12-12-12-12-12-| 
D|-12-12-12-12-12-12-12-12-12-12-12-12-12-12-12-12-| 
A|-10-10-10-10-10-10-10-10-10-10-10-10-10-10-10-10-| 
D|-------------------------------------------------| 
  Dozen believe the truth 

(Guitar 1) 
e|-7--7--7--7--7--7--7--7--7--7--7--7--7--7--7--7--| 
B|-8--8--8--8--8--8--8--8--8--8--8--8--8--8--8--8--| 
G|-7--7--7--7--7--7--7--7--7--7--7--7--7--7--7--7--| 
D|-------------------------------------------------| 
A|-------------------------------------------------| 
E|-------------------------------------------------| 
(Guitar 2) 
e|-------------------------------------------------| 
B|-12-12-12-12-12-12-12-12-12-12-12-12-12-12-12-12-| 
G|-12-12-12-12-12-12-12-12-12-12-12-12-12-12-12-12-| 
D|-12-12-12-12-12-12-12-12-12-12-12-12-12-12-12-12-| 
A|-10-10-10-10-10-10-10-10-10-10-10-10-10-10-10-10-| 
D|-------------------------------------------------| 
  This cats can't be on time 

(Guitar 1) 
e|-2-2-2-2-2-2-2-2-2-2-2-2-2-2-2-2-2-2-2-2-2-2-2-2-2-2-2-2-2-2-2-| 
B|-3-3-3-3-3-3-3-3-3-3-3-3-3-3-3-3-3-3-3-3-3-3-3-3-3-3-3-3-3-3-3-| 
G|-2-2-2-2-2-2-2-2-2-2-2-2-2-2-2-2-2-2-2-2-2-2-2-2-2-2-2-2-2-2-2-| 
D|---------------------------------------------------------------| 
A|---------------------------------------------------------------| 
E|---------------------------------------------------------------| 
(Guitar 2) 
e|---------------------------------------------------------------| 
B|-7-7-7-7-7-7-7-7-7-7-7-7-7-7-7-7-7-7-7-7-7-7-7-7-7-7-7-7-7-7-7-| 
G|-7-7-7-7-7-7-7-7-7-7-7-7-7-7-7-7-7-7-7-7-7-7-7-7-7-7-7-7-7-7-7-| 
D|-7-7-7-7-7-7-7-7-7-7-7-7-7-7-7-7-7-7-7-7-7-7-7-7-7-7-7-7-7-7-7-| 
A|-5-5-5-5-5-5-5-5-5-5-5-5-5-5-5-5-5-5-5-5-5-5-5-5-5-5-5-5-5-5-5-| 
D|---------------------------------------------------------------| 
  I wish it could be a godlike man inside of your museum 

Chorus 

(Guitar 1 + 2) 
e|--------------| 
B|--------------| 
G|-7/4-4--7/2-2-| 
D|-7/4-4--7/2-2-| 
A|-5/2-2--5/0-0-| 
E|--------------| 
 So close per year, So 

(Guitar 1) 
e|-2-2-2-2-2-2-2-2-2-2-2-2-2-2-2-2-2-2-2-2-2-2-2-2-2-2-2-2-2-2-2-| 
B|-3-3-3-3-3-3-3-3-3-3-3-3-3-3-3-3-3-3-3-3-3-3-3-3-3-3-3-3-3-3-3-| 
G|-2-2-2-2-2-2-2-2-2-2-2-2-2-2-2-2-2-2-2-2-2-2-2-2-2-2-2-2-2-2-2-| x2 
D|---------------------------------------------------------------| 
A|---------------------------------------------------------------| 
E|---------------------------------------------------------------| 
(Guitar 2) 
e|---------------------------------------------------------------| 
B|-7-7-7-7-7-7-7-7-7-7-7-7-7-7-7-7-7-7-7-7-7-7-7-7-7-7-7-7-7-7-7-| 
G|-7-7-7-7-7-7-7-7-7-7-7-7-7-7-7-7-7-7-7-7-7-7-7-7-7-7-7-7-7-7-7-| x2 
D|-7-7-7-7-7-7-7-7-7-7-7-7-7-7-7-7-7-7-7-7-7-7-7-7-7-7-7-7-7-7-7-| 
A|-5-5-5-5-5-5-5-5-5-5-5-5-5-5-5-5-5-5-5-5-5-5-5-5-5-5-5-5-5-5-5-| 
D|---------------------------------------------------------------| 
   Fa Fa Fa Fa Fa Fa Fa Fa Fa Fa Fa Fa Fa Fa 

(Guitar 1 + 2) 
e|--------------| 
B|--------------| 
G|-7/4-4--7/2-2-| 
D|-7/4-4--7/2-2-| 
A|-5/2-2--5/0-0-| 
E|--------------| 
 So close per year, So 

(Guitar 1 + 2 Pause) 
 Never a roman godlike man inside of your museum 

Solo 

(Guitar 1) 
e|------------------------------------------------------------------------------------------------------| 
B|------------------------------------------------------------------------------------------------------| 
G|-14\16/14-11---14\16/14-19~---14\16/14-11---14\16/14-14-12-11(Let Ring)--------------19~(Let Ring)----| 
D|------------------------------------------------------------------------------------------------------| 
A|------------------------------------------------------------------------------------------------------| 
E|------------------------------------------------------------------------------------------------------| 

(Guitar 2) 
e|------------------------------------------------------------------------------------------------------| 
B|-12---------------------------------------------------------------------------------------------------| 
G|-12-x32----------------------------------------------------7-7-7-7------7-7-7-7---7--7-7------7-7-7-7-| 
D|-12--------------------------------------------------------7-7-7-7------7-7-7-7---7--7-7------7-7-7-7-| 
A|-10--------------------------------------------------------5-5-5-5--5---5-5-5-5---5--5-5--5---5-5-5-5-| 
D|--------------------------------------------------------------------0---------------------0-----------| 


(Guitar 1) 
e|------------------------------------------------------------------------------------------------------| 
B|------------------------------------------------------------------------------------------------------| 
G|-14\16/14-11---14\16/14-19~---14\16/14-11---14\16/14-14-12-11(Let Ring)--------------19~(Let Ring)----| 
D|------------------------------------------------------------------------------------------------------| 
A|------------------------------------------------------------------------------------------------------| 
E|------------------------------------------------------------------------------------------------------| 

(Guitar 2) 
e|------------------------------------------------------------------------------------------------------| 
B|-12---------------------------------------------------------------------------------------------------| 
G|-12-x32----------------------------------------------------7-7-7-7------7-7-7-7---7--7-7------7-7-7-7-| 
D|-12--------------------------------------------------------7-7-7-7------7-7-7-7---7--7-7------7-7-7-7-| 
A|-10--------------------------------------------------------5-5-5-5--5---5-5-5-5---5--5-5--5---5-5-5-5-| 
D|--------------------------------------------------------------------0---------------------0-----------| 

Chorus 

(Guitar 1 + 2) 
e|--------------| 
B|--------------| 
G|-7/4-4--7/2-2-| 
D|-7/4-4--7/2-2-| 
A|-5/2-2--5/0-0-| 
E|--------------| 
 So close per year, So 

(Guitar 1) 
e|-2-2-2-2-2-2-2-2-2-2-2-2-2-2-2-2-2-2-2-2-2-2-2-2-2-2-2-2-2-2-2-| 
B|-3-3-3-3-3-3-3-3-3-3-3-3-3-3-3-3-3-3-3-3-3-3-3-3-3-3-3-3-3-3-3-| 
G|-2-2-2-2-2-2-2-2-2-2-2-2-2-2-2-2-2-2-2-2-2-2-2-2-2-2-2-2-2-2-2-| x2 
D|---------------------------------------------------------------| 
A|---------------------------------------------------------------| 
E|---------------------------------------------------------------| 
(Guitar 2) 
e|---------------------------------------------------------------| 
B|-7-7-7-7-7-7-7-7-7-7-7-7-7-7-7-7-7-7-7-7-7-7-7-7-7-7-7-7-7-7-7-| 
G|-7-7-7-7-7-7-7-7-7-7-7-7-7-7-7-7-7-7-7-7-7-7-7-7-7-7-7-7-7-7-7-| x2 
D|-7-7-7-7-7-7-7-7-7-7-7-7-7-7-7-7-7-7-7-7-7-7-7-7-7-7-7-7-7-7-7-| 
A|-5-5-5-5-5-5-5-5-5-5-5-5-5-5-5-5-5-5-5-5-5-5-5-5-5-5-5-5-5-5-5-| 
D|---------------------------------------------------------------| 
   Fa Fa Fa Fa Fa Fa Fa Fa Fa Fa Fa Fa Fa Fa 

(Guitar 1 + 2) 
e|--------------| 
B|--------------| 
G|-7/4-4--7/2-2-| 
D|-7/4-4--7/2-2-| 
A|-5/2-2--5/0-0-| 
E|--------------| 
 So close per year, So 

(Guitar 1 + 2 Pause) 
 Never a real life statue in your modern coluseum 

Outro 

(Guitar 1) 
e|-2-2-2-2-2-2-2-2-2-2-2-2-2-2-2-2-2-2-2-2-2-2-2-2-2-2-2-2-2-2-2-| 
B|-3-3-3-3-3-3-3-3-3-3-3-3-3-3-3-3-3-3-3-3-3-3-3-3-3-3-3-3-3-3-3-| 
G|-2-2-2-2-2-2-2-2-2-2-2-2-2-2-2-2-2-2-2-2-2-2-2-2-2-2-2-2-2-2-2-| 
D|---------------------------------------------------------------| 
A|---------------------------------------------------------------| 
E|---------------------------------------------------------------| 
(Guitar 2) 
e|---------------------------------------------------------------| 
B|-7-7-7-7-7-7-7-7-7-7-7-7-7-7-7-7-7-7-7-7-7-7-7-7-7-7-7-7-7-7-7-| 
G|-7-7-7-7-7-7-7-7-7-7-7-7-7-7-7-7-7-7-7-7-7-7-7-7-7-7-7-7-7-7-7-| 
D|-7-7-7-7-7-7-7-7-7-7-7-7-7-7-7-7-7-7-7-7-7-7-7-7-7-7-7-7-7-7-7-| 
A|-5-5-5-5-5-5-5-5-5-5-5-5-5-5-5-5-5-5-5-5-5-5-5-5-5-5-5-5-5-5-5-| 
D|---------------------------------------------------------------| 
   Never a roman godlike man inside of your museum 

(Guitar 1) 
e|-2-2-2-2-2-2-2-2-2-2-2-2-2-2-2-2-2-2-2-2-2-2-2-2-2-2-2-2-2-2-2-| 
B|-3-3-3-3-3-3-3-3-3-3-3-3-3-3-3-3-3-3-3-3-3-3-3-3-3-3-3-3-3-3-3-| 
G|-2-2-2-2-2-2-2-2-2-2-2-2-2-2-2-2-2-2-2-2-2-2-2-2-2-2-2-2-2-2-2-| 
D|---------------------------------------------------------------| 
A|---------------------------------------------------------------| 
E|---------------------------------------------------------------| 
(Guitar 2) 
e|---------------------------------------------------------------| 
B|-7-7-7-7-7-7-7-7-7-7-7-7-7-7-7-7-7-7-7-7-7-7-7-7-7-7-7-7-7-7-7-| 
G|-7-7-7-7-7-7-7-7-7-7-7-7-7-7-7-7-7-7-7-7-7-7-7-7-7-7-7-7-7-7-7-| 
D|-7-7-7-7-7-7-7-7-7-7-7-7-7-7-7-7-7-7-7-7-7-7-7-7-7-7-7-7-7-7-7-| 
A|-5-5-5-5-5-5-5-5-5-5-5-5-5-5-5-5-5-5-5-5-5-5-5-5-5-5-5-5-5-5-5-| 
D|---------------------------------------------------------------| 
   Never a roman godlike man inside of your museum 

(Guitar 1) 
e|--7--7--7--7--7--7--7--7--7--7--7--7--7--7--7--7--7--7--7--7--7--7--7--7--7--7--7--7--7--7--7--7-| 
B|--8--8--8--8--8--8--8--8--8--8--8--8--8--8--8--8--8--8--8--8--8--8--8--8--8--8--8--8--8--8--8--8-| 
G|--7--7--7--7--7--7--7--7--7--7--7--7--7--7--7--7--7--7--7--7--7--7--7--7--7--7--7--7--7--7--7--7-| 
D|-------------------------------------------------------------------------------------------------| 
A|-------------------------------------------------------------------------------------------------| 
E|-------------------------------------------------------------------------------------------------| 

(Guitar 2) 
e|-------------------------------------------------------------------------------------------------| 
B|-12-12-12-12-12-12-12-12-12-12-12-12-12-12-12-12-12-12-12-12-12-12-12-12-12-12-12-12-12-12-12-12-| 
G|-12-12-12-12-12-12-12-12-12-12-12-12-12-12-12-12-12-12-12-12-12-12-12-12-12-12-12-12-12-12-12-12-| 
D|-12-12-12-12-12-12-12-12-12-12-12-12-12-12-12-12-12-12-12-12-12-12-12-12-12-12-12-12-12-12-12-12-| 
A|-10-10-10-10-10-10-10-10-10-10-10-10-10-10-10-10-10-10-10-10-10-10-10-10-10-10-10-10-10-10-10-10-| 
D|-------------------------------------------------------------------------------------------------| 
   Never a roman godlike man inside of your museum 

(Guitar 1) 
e|-2-2-2-2-2-2-2-2-2-2-2-2-2-2-2-2-2-2-2-2-2-2-2-2-2-2-2-2-2-2-2-| 
B|-3-3-3-3-3-3-3-3-3-3-3-3-3-3-3-3-3-3-3-3-3-3-3-3-3-3-3-3-3-3-3-| 
G|-2-2-2-2-2-2-2-2-2-2-2-2-2-2-2-2-2-2-2-2-2-2-2-2-2-2-2-2-2-2-2-| 
D|---------------------------------------------------------------| 
A|---------------------------------------------------------------| 
E|---------------------------------------------------------------| 
(Guitar 2) 
e|---------------------------------------------------------------| 
B|-7-7-7-7-7-7-7-7-7-7-7-7-7-7-7-7-7-7-7-7-7-7-7-7-7-7-7-7-7-7-7-| 
G|-7-7-7-7-7-7-7-7-7-7-7-7-7-7-7-7-7-7-7-7-7-7-7-7-7-7-7-7-7-7-7-| 
D|-7-7-7-7-7-7-7-7-7-7-7-7-7-7-7-7-7-7-7-7-7-7-7-7-7-7-7-7-7-7-7-| 
A|-5-5-5-5-5-5-5-5-5-5-5-5-5-5-5-5-5-5-5-5-5-5-5-5-5-5-5-5-5-5-5-| 
D|---------------------------------------------------------------| 
   Never a roman godlike man inside of your museum 

(Guitar 1 + 2) 
e|-----------------| 
B|-----------------| 
G|-7/4-4--7/2-2----| 
D|-7/4-4--7/2-2\12-| 
A|-5/2-2--5/0-0----| 
E|-----------------| 

************************************ 

| /   Slide up 
| \   Slide down 
| ~   Vibrato 

************************************ 
  

top 5 | temples
top rock'n roll
Outras músicas do artista letras do(a) Temples
Top cifras »Top artistas »
Petaxxon Comunicação Online
Cifras.com.br - Melhor e mais completo site de cifras e tablaturas do Brasil
Mais de 1 milhão de acordes de músicas cadastradas desde 2003
As informações contidas no nosso site são colaborações de seus usuários e podem conter erros, sendo assim, não nos responsabilizamos sobre nenhuma destas.
close
menos
mais
close
Cor dos acordes:

Cor da letra:

 

save
close
close
 
redimensionar