Cifras e Tablaturas
Ten Yard Fight

Ten Yard Fight

Actions Speak

Cifras Cancelar Versão de Impressão
cifras

Ten Yard Fight - Actions Speak

fixar na tela  
Exibindo: vídeo-aula ver clipes redimensionar

Tom:

  
Intro 
e|---------------------------------------------------------------------------| 
b|---------------------------------------------------------------------------| 
G|--------------------------------------5-4----------------------------------| 
D|--4-x-x-x--4-x-x-x--4--4--4--4-4-4-4--5-4--2-2-2-2--4--4-------------------| 
A|--4-x-x-x--4-x-x-x--4--4--4--4-4-4-4--3-2--2-2-2-2--4--4-------------------| 
E|--2-x-x-x--2-x-x-x--2--2--2--2-2-2-2-------0-0-0-0--2--2-------------------| 

Verse 
e|---------------------------------------------------------------------------| 
b|---------------------------------------------------------------------------| 
G|-----------5-4--7-7-7-7-7-7------------5-4---------------------------------| 
D|--4-4-4-4--5-4--7-7-7-7-7-7---4-4-4-4--5-4--2-2-2-2-2-2--------------------| x2 
A|--4-4-4-4--3-2--5-5-5-5-5-5---4-4-4-4--3-2--2-2-2-2-2-2--------------------| 
E|--2-2-2-2---------------------2-2-2-2-------0-0-0-0-0-0--------------------| 

Bridge 
e|---------------------------------------------------------------------------| 
b|---------------------------------------------------------------------------| 
G|---------------------------------------------------------------------------| 
D|--4-x-x-x--4-x-x-x--4-4-4-4-4-4-4------------------------------------------| 
A|--4-x-x-x--4-x-x-x--4-4-4-4-4-4-4------------------------------------------| 
E|--2-x-x-x--2-x-x-x--2-2-2-2-2-2-2------------------------------------------| 

Verse 
e|---------------------------------------------------------------------------| 
b|---------------------------------------------------------------------------| 
G|-----------5-4--7-7-7-7-7-7------------5-4---------------------------------| 
D|--4-4-4-4--5-4--7-7-7-7-7-7---4-4-4-4--5-4--2-2-2-2-2-2--------------------| x2 
A|--4-4-4-4--3-2--5-5-5-5-5-5---4-4-4-4--3-2--2-2-2-2-2-2--------------------| 
E|--2-2-2-2---------------------2-2-2-2-------0-0-0-0-0-0--------------------| 

Bridge 
e|---------------------------------------------------------------------------| 
b|---------------------------------------------------------------------------| 
G|---------------------------------------------------------------------------| 
D|--4-x-x-x--4-x-x-x--4-4-4-4-4-4-4------------------------------------------| 
A|--4-x-x-x--4-x-x-x--4-4-4-4-4-4-4------------------------------------------| 
E|--2-x-x-x--2-x-x-x--2-2-2-2-2-2-2------------------------------------------| 

Chorus 
e|--------------------------------| 
b|--------------------------------| 
G|-------5-4-7--------5-4---------| 
D|--4-4--5-4-7---4-4--5-4-2-------| 
A|--4-4--3-2-5---4-4--3-2-2-------| 
E|--2-2----------2-2------0-------| 

e|------------------------------------------| 
b|------------------------------------------| 
G|-------5-4-7--9-10-9--------5-4-----------| 
D|--4-4--5-4-7-----------4-4--5-4--2-2-2-2--| x2 
A|--4-4--3-2-5--7-8--7---4-4--3-2--2-2-2-2--| 
E|--2-2------------------2-2-------0-0-0-0--| 

Outro 
e|---------------------------------------------------------------------------| 
b|---------------------------------------------------------------------------| 
G|---------------------------------------------------------------------------| 
D|--4-x-x-x--4-x-x-x--4-4-4-4-4-4-4------------------------------------------| 
A|--4-x-x-x--4-x-x-x--4-4-4-4-4-4-4------------------------------------------| 
E|--2-x-x-x--2-x-x-x--2-2-2-2-2-2-2------------------------------------------| 


*********************************** 

| x   Dead note 

*********************************** 
  

top 5 | ten yard fight
top rock'n roll
Outras músicas do artista letras do(a) Ten Yard Fight
Top cifras »Top artistas »
Petaxxon Comunicação Online
Cifras.com.br - Melhor e mais completo site de cifras e tablaturas do Brasil
Mais de 1 milhão de acordes de músicas cadastradas desde 2003
As informações contidas no nosso site são colaborações de seus usuários e podem conter erros, sendo assim, não nos responsabilizamos sobre nenhuma destas.
close
menos
mais
close
Cor dos acordes:

Cor da letra:

 

save
close
close
 
redimensionar