Cifras e Tablaturas
Ten Yard Fight

Ten Yard Fight

Back It Up

Cifras Cancelar Versão de Impressão
cifras

Ten Yard Fight - Back It Up

fixar na tela  
Exibindo: vídeo-aula ver clipes redimensionar

Tom:

  
Intro 
e|--------------------------------------------------------------------|  
B|--------------------------------------------------------------------|  
G|--------------------------------------------------------------------|  
D|--9-----/12 ---9-----/12 ---9-----/12 ---9-----/12 -----------------|  
A|--9-----/12 ---9-----/12 ---9-----/12 ---9-----/12 -----------------|  
E|--7-----/10 ---7-----/10 ---7-----/10 ---7-----/10 -----------------|  

Verse  
e|--------------------------------------------------------------------|  
B|--------------------------------------------------------------------|  
G|--------------------------------------------------------------------|  
D|-------------7-5---------------7----------------7-5---------------7-| x3 
A|-9-9-9-9-9-9-5-3--7-7-7-7-7--5-5----9-9-9-9-9-9-5-3--7-7-7-7-7--5-5-|  
E|-7-7-7-7-7-7------5-5-5-5-5--3------7-7-7-7-7-7------5-5-5-5-5--3---|  

Chorus 
e|--------------------------------------------------------------------|  
B|--------------------------------------------------------------------|  
G|--------------------------------------------------------------------|  
D|--9-9-9 ----------9-9-9 ----------9-9-9 ----------7---5-------------| x2 
A|--9-9-9 ----------9-9-9 ----------9-9-9 ----------5---3---5---7-----|  
E|--7-7-7 ----------7-7-7 ----------7-7-7 ------------------3---5-----|  
  
e|--------------------------------------------------------------------|  
B|--------------------------------------------------------------------|  
G|--------------------------------------------------------------------|  
D|--9-9-9-9-9-9-9-9-9-9-9-9-9-9-9-9-9---7---5-------------------------| x2 
A|--9-9-9-9-9-9-9-9-9-9-9-9-9-9-9-9-9---5---3---5---7-----------------|  
E|--7-7-7-7-7-7-7-7-7-7-7-7-7-7-7-7-7-----------3---5-----------------|  

Verse  
e|--------------------------------------------------------------------|  
B|--------------------------------------------------------------------|  
G|--------------------------------------------------------------------|  
D|-------------7-5---------------7----------------7-5---------------7-| x3 
A|-9-9-9-9-9-9-5-3--7-7-7-7-7--5-5----9-9-9-9-9-9-5-3--7-7-7-7-7--5-5-|  
E|-7-7-7-7-7-7------5-5-5-5-5--3------7-7-7-7-7-7------5-5-5-5-5--3---|  

Chorus 
e|--------------------------------------------------------------------|  
B|--------------------------------------------------------------------|  
G|--------------------------------------------------------------------|  
D|--9-9-9 ----------9-9-9 ----------9-9-9 ----------7---5-------------| x2 
A|--9-9-9 ----------9-9-9 ----------9-9-9 ----------5---3---5---7-----|  
E|--7-7-7 ----------7-7-7 ----------7-7-7 ------------------3---5-----|  
  
e|--------------------------------------------------------------------|  
B|--------------------------------------------------------------------|  
G|--------------------------------------------------------------------|  
D|--9-9-9-9-9-9-9-9-9-9-9-9-9-9-9-9-9---7---5-------------------------| x2 
A|--9-9-9-9-9-9-9-9-9-9-9-9-9-9-9-9-9---5---3---5---7-----------------|  
E|--7-7-7-7-7-7-7-7-7-7-7-7-7-7-7-7-7-----------3---5-----------------|  

Break.1 
e|-------------------------------------------|------------------------|  
B|-------------------------------------------|------------------------|  
G|-------------------------------------------|------------------------|  
D|-9-9-9 ------9-9-9 ------9-9-9 ------9-9-9 |--9----/12 --9----/12 --|  
A|-9-9-9 ------9-9-9 ------9-9-9 ------9-9-9 |--9----/12 --9----/12 --| 
E|-7-7-7 ------7-7-7 ------7-7-7 ------7-7-7 |--7----/10 --7----/10 --|  

Break.2 
e|--------------------------------------------------------------------|  
B|--------------------------------------------------------------------|  
G|--------------------------------------------------------------------|  
D|-----------7-\5----------------5--------------7-\5----------------5-| x3 
A|--9-9-9-9--5-\3--5-5-5-5--7-7--3-----9-9-9-9--5-\3--5-5-5-5--7-7--3-|  
E|--7-7-7-7--------3-3-3-3--5-5--------7-7-7-7--------3-3-3-3--5-5----|  
      PMPMPM         PMPMPM              PMPMPM         PMPMPM 

e|-----------------------------------|  
B|-----------------------------------|  
G|-----------------------------------|  
D|-----------7-\5----------------5---| 
A|--9-9-9-9--5-\3--5-5-5-5--7-7--3---|  
E|--7-7-7-7--------3-3-3-3--5-5------|  
      PMPMPM         PMPMPM               

Outro 
e|---------------------------------------------------|  
B|---------------------------------------------------|  
G|---------------------------------------------------|  
D|-------------7-5---------------7------7-5--------7-| 
A|-9-9-9-9-9-9-5-3--7-7-7-7-7--5-5----9-5-3--7---5-5-|  
E|-7-7-7-7-7-7------5-5-5-5-5--3------7------5---3---|  


*********************************** 

| PM  Palm muting 

*********************************** 
  

top 5 | ten yard fight
top rock'n roll
Outras músicas do artista letras do(a) Ten Yard Fight
Top cifras »Top artistas »
Petaxxon Comunicação Online
Cifras.com.br - Melhor e mais completo site de cifras e tablaturas do Brasil
Mais de 1 milhão de acordes de músicas cadastradas desde 2003
As informações contidas no nosso site são colaborações de seus usuários e podem conter erros, sendo assim, não nos responsabilizamos sobre nenhuma destas.
close
menos
mais
close
Cor dos acordes:

Cor da letra:

 

save
close
close
 
redimensionar