Cifras e Tablaturas
Ten Yard Fight

Ten Yard Fight

False Convictions

Cifras Cancelar Versão de Impressão
cifras

Ten Yard Fight - False Convictions

fixar na tela  
Exibindo: vídeo-aula ver clipes redimensionar

Tom:

  
Intro 
e|---------------------------------------------------------------------------|  
b|---------------------------------------------------------------------------|  
G|------------------9--9-9-9-9--10-10-10-10--12-12-12--10-10-10-10-----------|  
D|--2---------------9--X-X-X-X---X--X--X--X---X--X--X--10-10-10-10-----------|  
A|--2---------------7--7-7-7-7---8--8--8--8--10-10-10--8--8--8--8------------|  
E|--0--PICKSLIDE-------------------------------------------------------------|  

Verse  
e|---------------------------------------------------------------------------|  
B|---------------------------------------------------------------------------| 
G|--9-9-9--5-7--10-10-10--5-7---9-9-9--5-7--10-10-10-10-10-------------------|  
D|--9-9-9--5-7--10-10-10--5-7---9-9-9--5-7--10-10-10-10-10-------------------| x4  
A|--7-7-7--3-5--8--8--8---3-5---7-7-7--3-5--8--8--8--8--8--------------------|  
E|---------------------------------------------------------------------------|  

Bridge 
e|---------------------------------------------------------------------------|  
b|---------------------------------------------------------------------------|  
G|------------------9--9-9-9-9--10-10-10-10--12-12-12--10-10-10-10-----------|  
D|--2---------------9--X-X-X-X---X--X--X--X---X--X--X--10-10-10-10-----------|  
A|--2---------------7--7-7-7-7---8--8--8--8--10-10-10--8--8--8--8------------|  
E|--0--PICKSLIDE-------------------------------------------------------------|  

Chorus  
e|---------------------------------------------------------------------------|  
b|---------------------------------------------------------------------------|  
G|-------------------9--9--5-5-5--7-7-7--------------------------------------|  
D|--2-2-2-2-2-2-2-2--9--9--5-5-5--7-7-7--------------------------------------| x4 
A|--2-2-2-2-2-2-2-2--7--7--3-3-3--5-5-5--------------------------------------|  
E|--0-0-0-0-0-0-0-0----------------------------------------------------------|  
      PMPMPMPMPMPMPM       PMPM   PMPM 

Bridge 
e|---------------------------------------------------------------------------|  
b|---------------------------------------------------------------------------|  
G|------------------9--9-9-9-9--10-10-10-10--12-12-12--10-10-10-10-----------|  
D|--2---------------9--X-X-X-X---X--X--X--X---X--X--X--10-10-10-10-----------|  
A|--2---------------7--7-7-7-7---8--8--8--8--10-10-10--8--8--8--8------------|  
E|--0--PICKSLIDE-------------------------------------------------------------|  

Verse  
e|---------------------------------------------------------------------------|  
B|---------------------------------------------------------------------------| 
G|--9-9-9--5-7--10-10-10--5-7---9-9-9--5-7--10-10-10-10-10-------------------|  
D|--9-9-9--5-7--10-10-10--5-7---9-9-9--5-7--10-10-10-10-10-------------------| x4  
A|--7-7-7--3-5--8--8--8---3-5---7-7-7--3-5--8--8--8--8--8--------------------|  
E|---------------------------------------------------------------------------|  

Bridge 
e|---------------------------------------------------------------------------|  
b|---------------------------------------------------------------------------|  
G|------------------9--9-9-9-9--10-10-10-10--12-12-12--10-10-10-10-----------|  
D|--2---------------9--X-X-X-X---X--X--X--X---X--X--X--10-10-10-10-----------|  
A|--2---------------7--7-7-7-7---8--8--8--8--10-10-10--8--8--8--8------------|  
E|--0--PICKSLIDE-------------------------------------------------------------|  

Outro 
e|---------------------------------------------------------------------------|  
b|---------------------------------------------------------------------------|  
G|----*-*-*-*-*-*-*--9--9----------------------------------------------------|  
D|--2-2-2-2-2-2-2-2--9--9----------------------------------------------------|  
A|--2-2-2-2-2-2-2-2--7--7----------------------------------------------------|  
E|--0-0-0-0-0-0-0-0----------------------------------------------------------| 
      PMPMPMPMPMPMPM 

*********************************** 

| PM  Palm muting 
| x  Dead note 

*********************************** 
  

top 5 | ten yard fight
top rock'n roll
Outras músicas do artista letras do(a) Ten Yard Fight
Top cifras »Top artistas »
Petaxxon Comunicação Online
Cifras.com.br - Melhor e mais completo site de cifras e tablaturas do Brasil
Mais de 1 milhão de acordes de músicas cadastradas desde 2003
As informações contidas no nosso site são colaborações de seus usuários e podem conter erros, sendo assim, não nos responsabilizamos sobre nenhuma destas.
close
menos
mais
close
Cor dos acordes:

Cor da letra:

 

save
close
close
 
redimensionar