Cifras e Tablaturas
Ten Yard Fight

Ten Yard Fight

Glory Bound

Cifras Cancelar Versão de Impressão
cifras

Ten Yard Fight - Glory Bound

fixar na tela  
Exibindo: vídeo-aula ver clipes redimensionar

Tom:

  
Intro 
e|---------------------------------------------------------------------------| 
b|---------------------------------------------------------------------------| 
G|--2-2-2---------5-5-5-5-5--7---2-2-2---------5-5-5-5--7-7--5-5--7-7--5-5---| 
D|--2-2-2--3-3-3--5-5-5-5-5--7---2-2-2--3-3-3--5-5-5-5--7-7--5-5--7-7--5-5---| 
A|--0-0-0--3-3-3--3-3-3-3-3--5---0-0-0--3-3-3--3-3-3-3--5-5--3-3--5-5--3-3---| 
E|---------1-1-1------------------------1-1-1--------------------------------| 

Verse 
e|--------------------------------------------|------------------------------| 
b|--------------------------------------------|------------------------------| 
G|--2-2-2---------5-5-5-5-5--7-7-7-7-7-7-7-7--|--2-2-2---------5-5-5-5-5-----| 
D|--2-2-2--3-3-3--5-5-5-5-5--7-7-7-7-7-7-7-7--|--2-2-2--3-3-3--5-5-5-5-5-----| 
A|--0-0-0--3-3-3--3-3-3-3-3--5-5-5-5-5-5-5-5--|--0-0-0--3-3-3--3-3-3-3-3-----| 
E|---------1-1-1------------------------------|---------1-1-1----------------| 

e|----------------------|----------------------------------------------------| 
b|----------------------|----------------------------------------------------| 
G|--7-7--5-5--7-7--5-5--|--2-2-2---------5-5-5-5-5--7-7--9-9--10-10--9-9-----| 
D|--7-7--5-5--7-7--5-5--|--2-2-2--3-3-3--5-5-5-5-5---------------------------| 
A|--5-5--3-3--5-5--3-3--|--0-0-0--3-3-3--3-3-3-3-3--5-5--7-7--8--8---7-7-----| 
E|----------------------|---------1-1-1--------------------------------------| 

e|-----------------------------------------------|---------------------------| 
b|-----------------------------------------------|---------------------------| 
G|--2-2-2---------5-5-5-5-5--7-7--5-5--7-7--5-5--|--7-7---------7-7--5-5-5---| 
D|--2-2-2--3-3-3--5-5-5-5-5--7-7--5-5--7-7--5-5--|--7-7--3-3-3--7-7--5-5-5---| 
A|--0-0-0--3-3-3--3-3-3-3-3--5-5--3-3--5-5--3-3--|--5-5--3-3-3--5-5--3-3-3---| 
E|---------1-1-1---------------------------------|-------1-1-1---------------| 
                             PMPM PMPM PMPM PMPM 

Chorus 
e|-------------------------------------------| 
b|-------------------------------------------| 
G|--2-2-2-2--4-4-4-4--5-5-5-5-5-5-5-5--------| 
D|--2-2-2-2--4-4-4-4--5-5-5-5-5-5-5-5--------| x2 
A|--0-0-0-0--2-2-2-2--3-3-3-3-3-3-3-3--------| 
E|-------------------------------------------| 

e|-------------------------------| 
b|-------------------------------| 
G|--7-5-4-2----------------------| 
D|--7-5-4-2----------------------| 
A|--5-3-2-0----------------------| 
E|-------------------------------| 
    PMPMPMPM   

Verse 
e|--------------------------------------------|------------------------------| 
b|--------------------------------------------|------------------------------| 
G|--2-2-2---------5-5-5-5-5--7-7-7-7-7-7-7-7--|--2-2-2---------5-5-5-5-5-----| 
D|--2-2-2--3-3-3--5-5-5-5-5--7-7-7-7-7-7-7-7--|--2-2-2--3-3-3--5-5-5-5-5-----| 
A|--0-0-0--3-3-3--3-3-3-3-3--5-5-5-5-5-5-5-5--|--0-0-0--3-3-3--3-3-3-3-3-----| 
E|---------1-1-1------------------------------|---------1-1-1----------------| 

e|----------------------|----------------------------------------------------| 
b|----------------------|----------------------------------------------------| 
G|--7-7--5-5--7-7--5-5--|--2-2-2---------5-5-5-5-5--7-7--9-9--10-10--9-9-----| 
D|--7-7--5-5--7-7--5-5--|--2-2-2--3-3-3--5-5-5-5-5---------------------------| 
A|--5-5--3-3--5-5--3-3--|--0-0-0--3-3-3--3-3-3-3-3--5-5--7-7--8--8---7-7-----| 
E|----------------------|---------1-1-1--------------------------------------| 

e|-----------------------------------------------|---------------------------| 
b|-----------------------------------------------|---------------------------| 
G|--2-2-2---------5-5-5-5-5--7-7--5-5--7-7--5-5--|--7-7---------7-7--5-5-5---| 
D|--2-2-2--3-3-3--5-5-5-5-5--7-7--5-5--7-7--5-5--|--7-7--3-3-3--7-7--5-5-5---| 
A|--0-0-0--3-3-3--3-3-3-3-3--5-5--3-3--5-5--3-3--|--5-5--3-3-3--5-5--3-3-3---| 
E|---------1-1-1---------------------------------|-------1-1-1---------------| 
                             PMPM PMPM PMPM PMPM 

Chorus 
e|-------------------------------------------| 
b|-------------------------------------------| 
G|--2-2-2-2--4-4-4-4--5-5-5-5-5-5-5-5--------| 
D|--2-2-2-2--4-4-4-4--5-5-5-5-5-5-5-5--------| x2 
A|--0-0-0-0--2-2-2-2--3-3-3-3-3-3-3-3--------| 
E|-------------------------------------------| 

e|-------------------------------| 
b|-------------------------------| 
G|--7-5-4-2----------------------| 
D|--7-5-4-2----------------------| 
A|--5-3-2-0----------------------| 
E|-------------------------------| 
    PMPMPM 

Outro 
e|-------------------------| 
b|-------------------------| 
G|--2--2-2-2-2-2-2-2-------| 
D|--2--2-2-2-2-2-2-2--2-2--| 
A|--0--0-0-0-0-0-0-0--2-2--| 
E|--------------------0-0--| 

e|-------------------------------------------------| 
b|-------------------------------------------------| 
G|--2-2-2-2-2-2-------4-4-4-4--5-5-5-5-5-----------| 
D|--2-2-2-2-2-2--2-2--4-4-4-4--5-5-5-5-5-----------| x4 
A|--0-0-0-0-0-0--2-2--2-2-2-2--3-3-3-3-3-----------| 
E|---------------0-0-------------------------------| 

e|-------------------------------| 
b|-------------------------------| 
G|--7-5-4-2----------------------| 
D|--7-5-4-2----------------------| 
A|--5-3-2-0----------------------| 
E|-------------------------------| 
    PMPMPM 



************************************ 

| PM  Palm mute 

************************************ 
  

top 5 | ten yard fight
top rock'n roll
Outras músicas do artista letras do(a) Ten Yard Fight
Top cifras »Top artistas »
Petaxxon Comunicação Online
Cifras.com.br - Melhor e mais completo site de cifras e tablaturas do Brasil
Mais de 1 milhão de acordes de músicas cadastradas desde 2003
As informações contidas no nosso site são colaborações de seus usuários e podem conter erros, sendo assim, não nos responsabilizamos sobre nenhuma destas.
close
menos
mais
close
Cor dos acordes:

Cor da letra:

 

save
close
close
 
redimensionar