Cifras e Tablaturas
Ten Yard Fight

Ten Yard Fight

Opportunities

Cifras Cancelar Versão de Impressão
cifras

Ten Yard Fight - Opportunities

fixar na tela  
Exibindo: vídeo-aula ver clipes redimensionar

Tom:

  
Intro 
e|---------------------------------------------------------------------------| 
b|---------------------------------------------------------------------------| 
G|--9-9-9-9-9-9-9-9-9-9-9-9-9-9-9-9-9-9-9-9--9-9-9-9--9-9-9-9----------------| 
D|--9-9-9-9-9-9-9-9-9-9-9-9-9-9-9-9-9-9-9-9--9-9-9-9--9-9-9-9----------------| 
A|--7-7-7-7-7-7-7-7-7-7-7-7-7-7-7-7-7-7-7-7--7-7-7-7--7-7-7-7----------------| 
E|---------------------------------------------------------------------------| 
      PMPM  PMPM  PMPM  PMPM  PMPM  PMPM 

Verse 
e|----------------------------------| 
b|----------------------------------| 
G|--9-9-9--9-5---------5-7----------| 
D|--9-9-9--9-5--3-3-3--5-7----------| x3 
A|--7-7-7--7-3--3-3-3--3-5----------|  
E|--------------1-1-1---------------| 

e|----------------------------------------| 
b|----------------------------------------| 
G|-----------5-5-5------------------------|  
D|--3-3-3-3--5-5-5------------------------|  
A|--3-3-3-3--3-3-3------------------------|  
E|--1-1-1-1-------------------------------| 

e|----------------------------------| 
b|----------------------------------| 
G|--9-9-9--9-5---------5-7----------| 
D|--9-9-9--9-5--3-3-3--5-7----------| x3 
A|--7-7-7--7-3--3-3-3--3-5----------|  
E|--------------1-1-1---------------| 

e|----------------------------------------| 
b|----------------------------------------| 
G|-----------5-5-5------------------------|  
D|--3-3-3-3--5-5-5------------------------| 
A|--3-3-3-3--3-3-3------------------------|  
E|--1-1-1-1-------------------------------| 

Chorus 
e|---------------------------------------------------------------------------| 
b|---------------------------------------------------------------------------| 
G|--9-9-9-10-7--12-12-12---9-9-9-10-7----------9-9-9-10-7--12-12-12----------| 
D|--9-9-9-10-7--12-12-12---9-9-9-10-7--3-3-5---9-9-9-10-7--12-12-12----------| 
A|--7-7-7-8--5--10-10-10---7-7-7-8--5--3-3-5---7-7-7-8--5--10-10-10----------| 
E|-------------------------------------1-1-3---------------------------------| 
    PMPMPM                 PMPMPM              PMPMPM 

e|---------------------------------------------------------------------------| 
b|---------------------------------------------------------------------------| 
G|--10-10-10-10-10-10-10-10-10-10-10--12-12-12-12-12-12-12-12-12-------------| 
D|---------------------------------------------------------------------------| 
A|--8--8--8--8--8--8--8--8--8--8--8---10-10-10-10-10-10-10-10-10-------------| 
E|---------------------------------------------------------------------------| 

Verse 
e|----------------------------------| 
b|----------------------------------| 
G|--9-9-9--9-5---------5-7----------| 
D|--9-9-9--9-5--3-3-3--5-7----------| x3 
A|--7-7-7--7-3--3-3-3--3-5----------|  
E|--------------1-1-1---------------| 

e|----------------------------------------| 
b|----------------------------------------| 
G|-----------5-5-5------------------------|  
D|--3-3-3-3--5-5-5------------------------|  
A|--3-3-3-3--3-3-3------------------------|  
E|--1-1-1-1-------------------------------| 

e|----------------------------------| 
b|----------------------------------| 
G|--9-9-9--9-5---------5-7----------| 
D|--9-9-9--9-5--3-3-3--5-7----------| x3 
A|--7-7-7--7-3--3-3-3--3-5----------|  
E|--------------1-1-1---------------| 

e|----------------------------------------| 
b|----------------------------------------| 
G|-----------5-5-5------------------------|  
D|--3-3-3-3--5-5-5------------------------| 
A|--3-3-3-3--3-3-3------------------------|  
E|--1-1-1-1-------------------------------| 

Chorus 
e|---------------------------------------------------------------------------| 
b|---------------------------------------------------------------------------| 
G|--9-9-9-10-7--12-12-12---9-9-9-10-7----------9-9-9-10-7--12-12-12----------| 
D|--9-9-9-10-7--12-12-12---9-9-9-10-7--3-3-5---9-9-9-10-7--12-12-12----------| 
A|--7-7-7-8--5--10-10-10---7-7-7-8--5--3-3-5---7-7-7-8--5--10-10-10----------| 
E|-------------------------------------1-1-3---------------------------------| 
    PMPMPM                 PMPMPM              PMPMPM 
e|---------------------------------------------------------------------------| 
b|---------------------------------------------------------------------------| 
G|--10-10-10-10-10-10-10-10-10-10-10--12-12-12-12-12-12-12-12-12-------------| 
D|---------------------------------------------------------------------------| 
A|--8--8--8--8--8--8--8--8--8--8--8---10-10-10-10-10-10-10-10-10-------------| 
E|---------------------------------------------------------------------------| 

Outro 
e|---------------------------------------------------------------------------| 
b|---------------------------------------------------------------------------| 
G|--7-9-7-9--10-9-12-10--7-9-9-7--7-5-5-7------------------------------------| 
D|--7-9-7-9--10-9-12-10--7-9-9-7--7-5-5-7------------------------------------| x4 
A|--5/7-5/7--8-/7-10/8---5/7-7/5--5/3-3/5------------------------------------| 
E|---------------------------------------------------------------------------| 

e|---------------------------------------------------------------------------| 
b|---------------------------------------------------------------------------| 
G|--10-10-10-10-10-10-10-10-10-10-10--12-12-12-12-12-12-12-12-12----9--------| 
D|------------------------------------------------------------------9--------| 
A|--8--8--8--8--8--8--8--8--8--8--8---10-10-10-10-10-10-10-10-10----7--------| 
E|---------------------------------------------------------------------------| 


*********************************** 

| PM  Palm muting 

*********************************** 
  

top 5 | ten yard fight
top rock'n roll
Outras músicas do artista letras do(a) Ten Yard Fight
Top cifras »Top artistas »
Petaxxon Comunicação Online
Cifras.com.br - Melhor e mais completo site de cifras e tablaturas do Brasil
Mais de 1 milhão de acordes de músicas cadastradas desde 2003
As informações contidas no nosso site são colaborações de seus usuários e podem conter erros, sendo assim, não nos responsabilizamos sobre nenhuma destas.
close
menos
mais
close
Cor dos acordes:

Cor da letra:

 

save
close
close
 
redimensionar