Cifras e Tablaturas
Ten Yard Fight

Ten Yard Fight

Our Time

Cifras Cancelar Versão de Impressão
cifras

Ten Yard Fight - Our Time

fixar na tela  
Exibindo: vídeo-aula ver clipes redimensionar

Tom:

  
Intro 
e|----------------------| 
b|----------------------| 
G|--9-7-9--------9-7-9--| 
D|--9-7-9--2--2--9-7-9--| 
A|--7/5/7--2--2--7/5/7--| 
E|---------0--0---------| 

Verse 
e|----------------------------------------------------| 
b|----------------------------------------------------| 
G|--------------------9-7-9--------------------5-7-5--| 
D|--2-2-2-2-2--5-5-5--9-7-9--2-2-2-2-2--5-5-5--5-7-5--| x2 
A|--2-2-2-2-2--5-5-5--7/5/7--2-2-2-2-2--5-5-5--3-5-3--| 
E|--0-0-0-0-0--3-3-3---------0-0-0-0-0--3-3-3---------| 

Chorus 
e|--------------------------------------|--------------------------------------|----------| 
b|--------------------------------------|--------------------------------------|----------| 
G|--7-7-7-7--5-5-5-5--7-7-7-7--5-5-5-5--|--7-7-7-7--5-5-5-5--7-7-7-7--5-5-5-5--|--9-7-9---| 
D|--7-7-7-7--5-5-5-5--7-7-7-7--5-5-5-5--|--7-7-7-7--5-5-5-5--7-7-7-7--5-5-5-5--|--9-7-9---| 
A|--5-5-5-5--3-3-3-3--5-5-5-5--3-3-3-3--|--5-5-5-5--3-3-3-3--5-5-5-5--3-3-3-3--|--7/5/7---| 
E|--------------------------------------|--------------------------------------|----------| 
                               PMPMPMPM  

Verse 
e|----------------------------------------------------| 
b|----------------------------------------------------| 
G|--------------------9-7-9--------------------5-7-5--| 
D|--2-2-2-2-2--5-5-5--9-7-9--2-2-2-2-2--5-5-5--5-7-5--| x2 
A|--2-2-2-2-2--5-5-5--7/5/7--2-2-2-2-2--5-5-5--3-5-3--| 
E|--0-0-0-0-0--3-3-3---------0-0-0-0-0--3-3-3---------| 

Chorus 
e|--------------------------------------|--------------------------------------|----------| 
b|--------------------------------------|--------------------------------------|----------| 
G|--7-7-7-7--5-5-5-5--7-7-7-7--5-5-5-5--|--7-7-7-7--5-5-5-5--7-7-7-7--5-5-5-5--|--9-7-9---| 
D|--7-7-7-7--5-5-5-5--7-7-7-7--5-5-5-5--|--7-7-7-7--5-5-5-5--7-7-7-7--5-5-5-5--|--9-7-9---| 
A|--5-5-5-5--3-3-3-3--5-5-5-5--3-3-3-3--|--5-5-5-5--3-3-3-3--5-5-5-5--3-3-3-3--|--7/5/7---| 
E|--------------------------------------|--------------------------------------|----------| 
                               PMPMPMPM 

Bridge 
e|----------------| 
b|----------------| 
G|----9-7-9-------| 
D|--2-9-7-9-------| x4 
A|--2-7/5/7-------| 
E|--0-------------| 

Break 
e|----------------------------------------------------------| 
b|----------------------------------------------------------| 
G|---------4-4-4--7-7-7--9-7-9----------9-7-9--4-4-4--7-7-7-| 
D|--2-2-2--4-4-4--7-7-7--9-7-9---2-2-2--9-7-9--4-4-4--7-7-7-| x3 
A|--2-2-2--2-2-2--5-5-5--7/5/7---2-2-2--7/5/7--2-2-2--5-5-5-| 
E|--0-0-0------------------------0-0-0----------------------| 
    PMPM   PMPM   PMPM           PMPM          PMPM   PMPM 

Outro 
e|--------------------------------| 
b|--------------------------------| 
G|-------------------9-7-9--------| 
D|--2-2-2-2-2-2-2-2--9-7-9--------| x4 
A|--2-2-2-2-2-2-2-2--7/5/7--------| 
E|--0-0-0-0-0-0-0-0---------------| 
    PMPMPMPMPMPMPMPM 

*********************************** 

| PM  Palm muting 
| /   Slide Up 
| \   Slide-down 
| x  Dead note 

*********************************** 
  

top 5 | ten yard fight
top rock'n roll
Outras músicas do artista letras do(a) Ten Yard Fight
Top cifras »Top artistas »
Petaxxon Comunicação Online
Cifras.com.br - Melhor e mais completo site de cifras e tablaturas do Brasil
Mais de 1 milhão de acordes de músicas cadastradas desde 2003
As informações contidas no nosso site são colaborações de seus usuários e podem conter erros, sendo assim, não nos responsabilizamos sobre nenhuma destas.
close
menos
mais
close
Cor dos acordes:

Cor da letra:

 

save
close
close
 
redimensionar