Cifras e Tablaturas
Ten Yard Fight

Ten Yard Fight

The Same Side

Cifras Cancelar Versão de Impressão
cifras

Ten Yard Fight - The Same Side

fixar na tela  
Exibindo: vídeo-aula ver clipes redimensionar

Tom:

  
Intro 

e|-----------------| 
b|-----------------| 
G|--9--5-5-5--7-7--| 
D|--9--5-5-5--7-7--| 
A|--7--3-3-3--5-5--| 
E|-----------------| 

Verse 

e|---------------------------------------------------------| 
b|---------------------------------------------------------| 
G|--9-9-9-9-9--5-5-5-5-5-------------5-5-5--7-7-7----------| 
D|--9-9-9-9-9--5-5-5-5-5--7-7-7-7-7--5-5-5--7-7-7----------| x4 
A|--7-7-7-7-7--3-3-3-3-3--7-7-7-7-7--3-3-3--5-5-5----------| 
E|------------------------5-5-5-5-5------------------------| 

Chorus 

e|---------------------------------------------------------------------------| 
b|---------------------------------------------------------------------------| 
G|-----------7-7-7-7-------------7-7-7-7-7------------7-7-7-7-----------7-7--| 
D|--9-9-9-9--7-7-7-7--9-9-9-9-9--7-7-7-7-7---9-9-9-9--7-7-7-7--5-4-5-4--7-7--| x2 
A|--9-9-9-9--5-5-5-5--9-9-9-9-9--5-5-5-5-5---9-9-9-9--5-5-5-5--5-4-5-4--5-5--| 
E|--7-7-7-7-----------7-7-7-7-7--------------7-7-7-7-----------3-2-3-2-------| 
      PMPMPM          PMPMPMPMPM PMPMPMPMPM    PMPMPM     

Verse 

e|---------------------------------------------------------| 
b|---------------------------------------------------------| 
G|--9-9-9-9-9--5-5-5-5-5-------------5-5-5--7-7-7----------| 
D|--9-9-9-9-9--5-5-5-5-5--7-7-7-7-7--5-5-5--7-7-7----------| x4 
A|--7-7-7-7-7--3-3-3-3-3--7-7-7-7-7--3-3-3--5-5-5----------| 
E|------------------------5-5-5-5-5------------------------| 

Chorus 

e|---------------------------------------------------------------------------| 
b|---------------------------------------------------------------------------| 
G|-----------7-7-7-7-------------7-7-7-7-7------------7-7-7-7-----------7-7--| 
D|--9-9-9-9--7-7-7-7--9-9-9-9-9--7-7-7-7-7---9-9-9-9--7-7-7-7--5-4-5-4--7-7--| x2 
A|--9-9-9-9--5-5-5-5--9-9-9-9-9--5-5-5-5-5---9-9-9-9--5-5-5-5--5-4-5-4--5-5--| 
E|--7-7-7-7-----------7-7-7-7-7--------------7-7-7-7-----------3-2-3-2-------| 
      PMPMPM          PMPMPMPMPM PMPMPMPMPM    PMPMPM     

Outro 

e|-----------------| 
b|-----------------| 
G|-----------7-7---| 
D|--5-4-5-4--7-7---| 
A|--5-4-5-4--5-5---| 
E|--3-2-3-2--------| 

e|---------------------------------------------------------| 
b|---------------------------------------------------------| 
G|-------------7-7-7-7-7-------------------9-9-------------| 
D|--9-9-9-9-9--7-7-7-7-7--5-5-4-4-5-5-4-4--9-9-------------| x2 
A|--9-9-9-9-9--5-5-5-5-5--5-5-4-4-5-5-4-4--7-7-------------| 
E|--7-7-7-7-7-------------3-3-2-2-3-3-2-2------------------| 
      PMPMPMPM PMPMPMPMPM PMPMPMPMPMPMPMPM 

e|---------------------------------------------------| 
b|---------------------------------------------------| 
G|-------------7-7-7-7-7-------------------9-9-------| 
D|--9-9-9-9-9--7-7-7-7-7--5-5-4-4-5-5-4-4--9-9-------| x2 
A|--9-9-9-9-9--5-5-5-5-5--5-5-4-4-5-5-4-4--7-7-------| 
E|--7-7-7-7-7-------------3-3-2-2-3-3-2-2------------| 

e|-----------------------| 
b|-----------------------| 
G|-----5-5-5-7-7--9------| 
D|--9--5-5-5-7-7--9------| 
A|--9--3-3-3-5-5--7------| 
E|--7--------------------| 

*********************************** 

| PM  Palm muting 

*********************************** 
  

top 5 | ten yard fight
top rock'n roll
Outras músicas do artista letras do(a) Ten Yard Fight
Top cifras »Top artistas »
Petaxxon Comunicação Online
Cifras.com.br - Melhor e mais completo site de cifras e tablaturas do Brasil
Mais de 1 milhão de acordes de músicas cadastradas desde 2003
As informações contidas no nosso site são colaborações de seus usuários e podem conter erros, sendo assim, não nos responsabilizamos sobre nenhuma destas.
close
menos
mais
close
Cor dos acordes:

Cor da letra:

 

save
close
close
 
redimensionar