Cifras e Tablaturas
Testament

Testament

Rise Up

Cifras Cancelar Versão de Impressão

Testament - Rise Up

Tom: D#

  			
Intro   

   PM all open D# notes 

   Lead Guitar 
D#|---------------------------------|----------------------------------| 
A#|---------------------------------|----------------------------------| 
F#|---------------------------------|----------------------------------| 
C#|---------------------------------|----------------------------------| 
G#|-2-------------------------------|--------------5-------4-------3---| 
D#|-0-------------------------------|--------------3-------2-------1---| 
  | 
  | Rhythm Guitar  
D#|---------------------------------|----------------------------------| 
A#|---------------------------------|----------------------------------| 
F#|---------------------------------|----------------------------------| 
C#|---------------------------------|----------------------------------| 
G#|-------------8---7-------7---8---|--------------5-------4-------3---| 
D#|-0-0-0-0-0-0-6---5---0---5---6---|-0-0-0-0-0-0--3---0-0-2---0-0-1---| 


D#|---------------------------------|-------------------------------| 
A#|---------------------------------|-------------------------------| 
F#|---------------------------------|-------------------------------| 
C#|---------------------------------|-------------------------------| 
G#|-2-------------------------------|-------------8------5------8---| 
D#|-0-------------------------------|-0---0-0-0---6------3------6---| 
  | 
  | 
D#|---------------------------------|-------------------------------| 
A#|---------------------------------|-------------------------------| 
F#|---------------------------------|-------------------------------| 
C#|---------------------------------|-------------------------------| 
G#|-------------8---7-------7---8---|-------------8------5------8---| 
D#|-0-0-0-0-0-0-6---5---0---5---6---|-0---0-0-0---6------3------6---| 


   Lead Guitar 
D#|---------------------------------|----------------------------------| 
A#|---------------------------------|----------------------------------| 
F#|---------------------------------|----------------------------------| 
C#|---------------------------------|----------------------------------|  play 2x 
G#|-2-------------------------------|--------------5-------4-------3---| 
D#|-0-------------------------------|--------------3-------2-------1---| 
  | 
  | Rhythm Guitar  
D#|---------------------------------|----------------------------------| 
A#|---------------------------------|----------------------------------| 
F#|---------------------------------|----------------------------------| 
C#|---------------------------------|----------------------------------|  play 2x 
G#|-------------8---7-------7---8---|--------------5-------4-------3---| 
D#|-0-0-0-0-0-0-6---5---0---5---6---|-0-0-0-0-0-0--3---0-0-2---0-0-1---| 



Preverse 1 

    Rhythm Guitar 
D#|------------|-----------------------------|-------------|---------------------------| 
A#|------------|-----------------------------|-------------|---------------------------| 
F#|------------|-----------------------------|-------------|---------------------------| 
C#|-2----------|-(2)-------------------------|-2-----------|-(2)-----------------------| 
G#|-2----------|-(2)----------8-----5----8---|-2-----------|-(2)---------5----4----3---| 
D#|-0----------|-(0)----------6-----3----6---|-0-----------|-(0)---------3----2----1---| 

D#|----------------|---------------------------|----------------|-----------------------| 
A#|----------------|---------------------------|----------------|-----------------------| 
F#|----------------|---------------------------|----------------|-----------------------| 
C#|-2--------------|-(2)-----------------------|----------------|-----------------------| 
G#|-2--------------|-(2)---------8----5--------|-8--------------|-3-----------5------5--| 
D#|-0--------------|-(0)---------6----3----0---|-6--------------|-1-----------3------3--| 


D#|---------------|-----------------------------|-------------|---------------------------| 
A#|---------------|-----------------------------|-------------|---------------------------| 
F#|---------------|-----------------------------|-------------|---------------------------| 
C#|-2-------------|-(2)-------------------------|-2-----------|-(2)-----------------------| 
G#|-2-------------|-(2)----------8-----5----8---|-2-----------|-(2)---------5----4----4---| 
D#|-0-------------|-(0)----------6-----3----6---|-0-----------|-(0)---------3----2----2---| 

D#|----------------|-----------------------|---------------|-----------------------------| 
A#|----------------|-----------------------|---------------|-----------------------------| 
F#|----------------|-----------------------|---------------|-----------------------------| 
C#|----------------|-----------------------|-2-------------|-(2)-------------------------| 
G#|-8--------------|-3-----------5------5--|-2-------------|-(2)----------8-----5----8---| 
D#|-6--------------|-1-----------3------3--|-0-------------|-(0)----------6-----3----6---| 

 D#|----------------|---------------------------|----------------|-----------------------| 
A#|----------------|---------------------------|----------------|-----------------------| 
F#|----------------|---------------------------|----------------|-----------------------| 
C#|-2--------------|-(2)-----------------------|----------------|-----------------------| 
G#|-2--------------|-(2)---------5----4----4---|-8--------------|-3-----------5------5--| 
D#|-0--------------|-(0)---------3----2----2---|-6--------------|-1-----------3------3--| 


Lead Part - plays with above rhythm part 
D#|---------------------------------|---------------------------------| 
A#|---------------------------------|---------------------------------| 
F#|---------------------------------|---------------------------------| 
C#|---------------------------------|---------------------------------|  
G#|---------7-------8-------7-------|-8-------7-------5-------5/7-----| 
D#|-0---0-------0-------0-------0---|-----0-------0-------0-----------| 

D#|---------------------------------|---------------------------------| 
A#|---------------------------------|---------------------------------| 
F#|---------------------------------|---------------------------------| 
C#|-----------------8---------------|---------7---6-------6-----------| 
G#|---------7---------------7-------|-8---------------8-------8---7---| 
D#|-0---0-------0-------0-------0---|-----0---------------------------| 

D#|---------------------------------|---------------------------------| 
A#|---------------------------------|---------------------------------| 
F#|---------------------------------|---------------------------------| 
C#|---------------------------------|---------------------------------|  
G#|---------7-------8-------7-------|-8-------7-------5-------5/7-----| 
D#|-0---0-------0-------0-------0---|-----0-------0-------0-----------| 

D#|-----------------------------|-----------------------------| 
A#|-----------------------------|-----------------------------| 
F#|-----------------------------|-----------------------------| 
C#|-----8-----------------------|-----8-----------------------| 
G#|-8-------8p7---8p7---5---7---|-8-------8p7---8p7---5---7---| 
D#|-----------------------------|-----------------------------| 

D#|---------------------------------|---------------------------------| 
A#|---------------------------------|---------------------------------| 
F#|---------------------------------|---------------------------------| 
C#|---------------------------------|---------------------------------|  
G#|---------7-------8-------7-------|-8-------7-------5-------5/7-----| 
D#|-0---0-------0-------0-------0---|-----0-------0-------0-----------| 

D#|---------------------------------|---------------------------------| 
A#|---------------------------------|---------------------------------| 
F#|---------------------------------|---------------------------------| 
C#|-----------------8---------------|---------7---6-------6-----------| 
G#|---------7---------------7-------|-8---------------8-------8---7---| 
D#|-0---0-------0-------0-------0---|-----0---------------------------| 

D#|-----------------------------|-----------------------------| 
A#|-----------------------------|-----------------------------| 
F#|-----------------------------|-----------------------------| 
C#|-----8-----------------------|-----8-----------------------| 
G#|-8-------8p7---8p7---5---7---|-8-------8p7---8p7---5---7---| 
D#|-----------------------------|-----------------------------| 


Preverse 2 
D#|---------------------------------|---------------------------------| 
A#|---------------------------------|---------------------------------| 
F#|---------------------------------|---------------------------------| 
C#|---------------------------------|---------------------------------| 
G#|-------------8---7-------7---8---|-------------5-------4-------3---| 
D#|-0-0-0-0-0-0-6---5---0---5---6---|-0-0-0-0-0-0-3---0-0-2---0-0-1---| 


D#|---------------------------------|--------------------------------| 
A#|---------------------------------|--------------------------------| 
F#|---------------------------------|--------------------------------| 
C#|---------------------------------|-------------3---6---6---6------| 
G#|-------------8---7-------7---8---|-------------5---8---8---8------| 
D#|-0-0-0-0-0-0-6---5---0---5---6---|-0---0-0-0----------------------| 


D#|---------------------------------|---------------------------------| 
A#|---------------------------------|---------------------------------| 
F#|---------------------------------|---------------------------------| 
C#|---------------------------------|---------------------------------| 
G#|-------------8---7-------7---8---|-------------5-------4-------3---| 
D#|-0-0-0-0-0-0-6---5---0---5---6---|-0-0-0-0-0-0-3---0-0-2---0-0-1---| 

D#|---------------------------------|------------------------------| 
A#|---------------------------------|------------------------------| 
F#|---------------------------------|------------------------------| 
C#|---------------------------------|------------------------------| 
G#|-------------8---7-------7---8---|-------------8-----5-----8----| 
D#|-0-0-0-0-0-0-6---5---0---5---6---|-0-0-0---0---6-----3-----6----| 



Verse 

D#|---------------------------------|------------------------------| 
A#|---------------------------------|------------------------------| 
F#|---------------------------------|------------------------------| 
C#|---------------------------------|------------------------------| 
G#|---------------------------------|-------------8-----5-----8----| 
D#|-0---0-0-0---0---0-0-0---0---0---|-0-0-0---0---6-----3-----6----| 

D#|---------------------------------|--------------------------------| 
A#|---------------------------------|--------------------------------| 
F#|---------------------------------|--------------------------------| 
C#|---------------------------------|--------------------------------| 
G#|---------------------------------|-------------8------5-----3-----| 
D#|-0---0-0-0---0---0-0-0---0---0---|-0-0-0---0---6------3-----1-----| 

D#|---------------------------------|------------------------------| 
A#|---------------------------------|------------------------------| 
F#|---------------------------------|------------------------------| 
C#|---------------------------------|------------------------------| 
G#|---------------------------------|-------------8-----5-----8----| 
D#|-0---0-0-0---0---0-0-0---0---0---|-0-0-0---0---6-----3-----6----| 

D#|---------------------------------|---------------------------------| 
A#|---------------------------------|---------------------------------| 
F#|---------------------------------|---------------------------------| 
C#|---------------------------------|---------------------------------| 
G#|---------------------------------|---------------------------------| 
D#|-3-3-3---3---3---3---3---3---6---|-2-2-2---2---2---2---2---2---5---| 

D#|---------------------------------|--------------------------------| 
A#|---------------------------------|--------------------------------| 
F#|---------------------------------|--------------------------------| 
C#|---------------------------------|--------------------------------| 
G#|---------------------------------|-------------8------5-----3-----| 
D#|-0---0-0-0---0---0-0-0---0---0---|-0-0-0---0---6------3-----1-----| 

D#|---------------------------------|--------------------------------| 
A#|---------------------------------|--------------------------------| 
F#|---------------------------------|--------------------------------| 
C#|---------------------------------|--------------------------------| 
G#|---------------------------------|-------------8------5-----3-----| 
D#|-0---0-0-0---0---0-0-0---0---0---|-0-0-0---0---6------3-----1-----| 

D#|---------------------------------|---------------------------------| 
A#|---------------------------------|---------------------------------| 
F#|---------------------------------|---------------------------------| 
C#|---------------------------------|---------------------------------| 
G#|---------------------------------|---------------------------------| 
D#|-3-3-3---3---3---3---3---3---6---|-2-2-2---2---2---2---2---2---5---| 


PreVerse Again 
D#|---------------------------------|---------------------------------| 
A#|---------------------------------|---------------------------------| 
F#|---------------------------------|---------------------------------| 
C#|---------------------------------|---------------------------------| 
G#|-------------8---7-------7---8---|-------------5-------4-------3---| 
D#|-0-0-0-0-0-0-6---5---0---5---6---|-0-0-0-0-0-0-3---0-0-2---0-0-1---| 


D#|---------------------------------|--------------------------------| 
A#|---------------------------------|--------------------------------| 
F#|---------------------------------|--------------------------------| 
C#|---------------------------------|-------------3---6---6---6------| 
G#|-------------8---7-------7---8---|-------------5---8---8---8------| 
D#|-0-0-0-0-0-0-6---5---0---5---6---|-0---0-0-0----------------------| 


D#|---------------------------------|---------------------------------| 
A#|---------------------------------|---------------------------------| 
F#|---------------------------------|---------------------------------| 
C#|---------------------------------|---------------------------------| 
G#|-------------8---7-------7---8---|-------------5-------4-------3---| 
D#|-0-0-0-0-0-0-6---5---0---5---6---|-0-0-0-0-0-0-3---0-0-2---0-0-1---| 

D#|---------------------------------|------------------------------| 
A#|---------------------------------|------------------------------| 
F#|---------------------------------|------------------------------| 
C#|---------------------------------|------------------------------| 
G#|-------------8---7-------7---8---|-------------8-----5-----8----| 
D#|-0-0-0-0-0-0-6---5---0---5---6---|-0-0-0---0---6-----3-----6----| 


verse 2 

D#|---------------------------------|------------------------------| 
A#|---------------------------------|------------------------------| 
F#|---------------------------------|------------------------------| 
C#|---------------------------------|------------------------------| 
G#|---------------------------------|-------------8-----5-----8----| 
D#|-0---0-0-0---0---0-0-0---0---0---|-0-0-0---0---6-----3-----6----| 

D#|---------------------------------|--------------------------------| 
A#|---------------------------------|--------------------------------| 
F#|---------------------------------|--------------------------------| 
C#|---------------------------------|--------------------------------| 
G#|---------------------------------|-------------8------5-----3-----| 
D#|-0---0-0-0---0---0-0-0---0---0---|-0-0-0---0---6------3-----1-----| 

D#|---------------------------------|------------------------------| 
A#|---------------------------------|------------------------------| 
F#|---------------------------------|------------------------------| 
C#|---------------------------------|------------------------------| 
G#|---------------------------------|-------------8-----5-----8----| 
D#|-0---0-0-0---0---0-0-0---0---0---|-0-0-0---0---6-----3-----6----| 

D#|---------------------------------|---------------------------------| 
A#|---------------------------------|---------------------------------| 
F#|---------------------------------|---------------------------------| 
C#|---------------------------------|---------------------------------| 
G#|---------------------------------|---------------------------------| 
D#|-3-3-3---3---3---3---3---3---6---|-2-2-2---2---2---2---2---2---5---| 

D#|---------------------------------|--------------------------------| 
A#|---------------------------------|--------------------------------| 
F#|---------------------------------|--------------------------------| 
C#|---------------------------------|--------------------------------| 
G#|---------------------------------|-------------8------5-----8-----| 
D#|-0---0-0-0---0---0-0-0---0---0---|-0-0-0---0---6------3-----6-----| 

D#|---------------------------------|--------------------------------| 
A#|---------------------------------|--------------------------------| 
F#|---------------------------------|--------------------------------| 
C#|---------------------------------|--------------------------------| 
G#|---------------------------------|-------------8------5-----3-----| 
D#|-0---0-0-0---0---0-0-0---0---0---|-0-0-0---0---6------3-----1-----| 

D#|---------------------------------|--------------------------------| 
A#|---------------------------------|--------------------------------| 
F#|---------------------------------|--------------------------------| 
C#|---------------------------------|--------------------------------| 
G#|---------------------------------|-------------8------5-----8-----| 
D#|-0---0-0-0---0---0-0-0---0---0---|-0-0-0---0---6------3-----6-----| 

D#|---------------------------------|---------------------------------| 
A#|---------------------------------|---------------------------------| 
F#|---------------------------------|---------------------------------| 
C#|---------------------------------|---------------------------------| 
G#|---------------------------------|---------------------------------| 
D#|-3-3-3---3---3---3---3---3---6---|-2-2-2---2---2---2---2---2---5---| 



Chorus 
     
    play 2x 
D#|-----------------------|----------------------|------------------------|---------------------| 
A#|-----------------------|----------------------|------------------------|---------------------| 
F#|-----------------------|----------------------|------------------------|---------------------| 
C#|-2---------------7-----|----------------------|-2----------------7-----|---------------------| 
G#|-2---------------5-----|-8--------5-----7-----|-2----------------5-----|-8--------5-----3----| 
D#|-0---------------------|-6--------3-----5-----|-0----------------------|-6--------3-----1----| 
  "When I say rise up,                             you say war..." 


    play 2x 
D#|-----------------------|----------------------|------------------------|---------------------| 
A#|-----------------------|----------------------|------------------------|---------------------| 
F#|-----------------------|----------------------|------------------------|---------------------| 
C#|-------2---------7-----|----------------------|-------2----------7-----|---------------------| 
G#|-------2---------5-----|-8--------5-----7-----|-------2----------5-----|-8--------5-----3----| 
D#|-0-0-0-0---------------|-6--------3-----5-----|-0-0-0-0----------------|-6--------3-----1----| 


Preverse 3 

D#|---------------------------------|---------------------------------| 
A#|---------------------------------|---------------------------------| 
F#|---------------------------------|---------------------------------| 
C#|---------------------------------|---------------------------------| 
G#|-------------8---7-------7---8---|-------------5-------4-------3---| 
D#|-0-0-0-0-0-0-6---5---0---5---6---|-0-0-0-0-0-0-3---0-0-2---0-0-1---| 

D#|---------------------------------|------------------------------| 
A#|---------------------------------|------------------------------| 
F#|---------------------------------|------------------------------| 
C#|---------------------------------|------------------------------| 
G#|-------------8---7-------7---8---|-------------8-----5-----8----| 
D#|-0-0-0-0-0-0-6---5---0---5---6---|-0-0-0---0---6-----3-----6----| 

    * heavy muting 
D#|-----------------------------|-------------------------|-----------------|---------------| 
A#|-----------------------------|-------------------------|-----------------|---------------| 
F#|-----------------------------|-------------------------|-----------------|---------------| 
C#|-----------------------------|-------------------------|-----------------|---------------| 
G#|-2------2------2------2------|-2-----2-----5---4---3---|-2---------------|---5---4---3---| 
D#|-0------0------0------0------|-0-----0-----3---2---1---|-0---------------|---3---2---1---| 



Bridge 1 

    Rhythm Part  
D#|---------------------|------------------------------| 
A#|---------------------|------------------------------| 
F#|---------------------|------------------------------| 
C#|-2-------------------|-(2)--------------------------| 
G#|-2-------------------|-(2)------8-------5-------8---| 
D#|-0-------------------|-(0)------6-------3-------6---| 


D#|-------------|---------------------------|-------------|---------------------------| 
A#|-------------|---------------------------|-------------|---------------------------| 
F#|-------------|---------------------------|-------------|---------------------------| 
C#|-2-----------|-(2)-----------------------|-2-----------|-(2)-----------------------| 
G#|-2-----------|-(2)--------5-----4----3---|-2-----------|-(2)--------8-----5--------| 
D#|-0-----------|-(0)--------3-----2----1---|-0-----------|-(0)--------6-----3----0---| 


D#|-------------|-----------------------|-------------|---------------------------|--------| 
A#|-------------|-----------------------|-------------|---------------------------|--------| 
F#|-------------|-----------------------|-------------|---------------------------|--------| 
C#|-------------|-----------------------|-2-----------|---------------------------|-2------| 
G#|-8-----------|-3------------5----5---|-2-----------|-------------8----5----8---|-2------| 
D#|-6-----------|-1------------3----3---|-0-----------|-0---0-0-0---6----3----6---|-0------| 


D#|------------------------------|-------------|-----------------------| 
A#|------------------------------|-------------|-----------------------| 
F#|------------------------------|-------------|-----------------------| 
C#|-(2)--------------------------|-------------|-----------------------| 
G#|-(2)----------5-----4-----4---|-8-----------|-3---------5-------5---| 
D#|-(0)----------3-----2-----2---|-6-----------|-1---------3-------3---| 


D#|---------------------|------------------------------|---------------------| 
A#|---------------------|------------------------------|---------------------| 
F#|---------------------|------------------------------|---------------------| 
C#|-2-------------------|-(2)--------------------------|-2-------------------| 
G#|-2-------------------|-(2)------8-------5-------8---|-2-------------------| 
D#|-0-------------------|-(0)------6-------3-------6---|-0-------------------| 

D#|--------------------------|-------------|-----------------------| 
A#|--------------------------|-------------|-----------------------| 
F#|--------------------------|-------------|-----------------------| 
C#|-(2)----------------------|-------------|-----------------------| 
G#|-(2)---------5----4-------|-8-----------|-3---------5-------5---| 
D#|-(0)---------3----2----0--|-6-----------|-1---------3-------3---| 


   Lead Part 
D#|---------------------------------|---------------------------------| 
A#|---------------------------------|---------------------------------| 
F#|---------------------------------|---------------------------------| 
C#|---------------------------------|---------------------------------|  
G#|---------7-------8-------7-------|-8-------7-------5-------5/7-----| 
D#|-0---0-------0-------0-------0---|-----0-------0-------0-----------| 

D#|---------------------------------|---------------------------------| 
A#|---------------------------------|---------------------------------| 
F#|---------------------------------|---------------------------------| 
C#|-----------------8---------------|---------7---6-------6-----------| 
G#|---------7---------------7-------|-8---------------8-------8---7---| 
D#|-0---0-------0-------0-------0---|-----0---------------------------| 

D#|---------------------------------|---------------------------------| 
A#|---------------------------------|---------------------------------| 
F#|---------------------------------|---------------------------------| 
C#|---------------------------------|---------------------------------|  
G#|---------7-------8-------7-------|-8-------7-------5-------5/7-----| 
D#|-0---0-------0-------0-------0---|-----0-------0-------0-----------| 

D#|-----------------------------|-----------------------------| 
A#|-----------------------------|-----------------------------| 
F#|-----------------------------|-----------------------------| 
C#|-----8-----------------------|-----8-----------------------| 
G#|-8-------8p7---8p7---5---7---|-8-------8p7---8p7---5---7---| 
D#|-----------------------------|-----------------------------| 

D#|---------------------------------|---------------------------------| 
A#|---------------------------------|---------------------------------| 
F#|---------------------------------|---------------------------------| 
C#|---------------------------------|---------------------------------|  
G#|---------7-------8-------7-------|-8-------7-------5-------5/7-----| 
D#|-0---0-------0-------0-------0---|-----0-------0-------0-----------| 

D#|---------------------------------|---------------------------------| 
A#|---------------------------------|---------------------------------| 
F#|---------------------------------|---------------------------------| 
C#|-----------------8---------------|---------7---6-------6-----------| 
G#|---------7---------------7-------|-8---------------8-------8---7---| 
D#|-0---0-------0-------0-------0---|-----0---------------------------| 

D#|-----------------------------|-----------------------------| 
A#|-----------------------------|-----------------------------| 
F#|-----------------------------|-----------------------------| 
C#|-----8-----------------------|-----8-----------------------| 
G#|-8-------8p7---8p7---5---7---|-8-------8p7---8p7---5---7---| 
D#|-----------------------------|-----------------------------| 

D#|---------------------------------|---------------------------------| 
A#|---------------------------------|---------------------------------| 
F#|---------------------------------|---------------------------------| 
C#|---------------------------------|---------------------------------|  
G#|---------7-------8-------7-------|-8-------7-------5-------5/7-----| 
D#|-0---0-------0-------0-------0---|-----0-------0-------0-----------| 

D#|---------------------------------|---------------------------------| 
A#|---------------------------------|---------------------------------| 
F#|---------------------------------|---------------------------------| 
C#|-----------------8---------------|---------7---6-------6-----------| 
G#|---------7---------------7-------|-8---------------8-------8---7---| 
D#|-0---0-------0-------0-------0---|-----0---------------------------| 

D#|-----------------------------|-----------------------------| 
A#|-----------------------------|-----------------------------| 
F#|-----------------------------|-----------------------------| 
C#|-----8-----------------------|-----8-----------------------| 
G#|-8-------8p7---8p7---5---7---|-8-------8p7---8p7---5---7---| 
D#|-----------------------------|-----------------------------| 



Bridge 2 

    Rhythm part    PM throughout 
D#|---------------------------------|---------------------------------| 
A#|---------------------------------|---------------------------------| 
F#|---------------------------------|---------------------------------| 
C#|---------------------------------|---------------------------------|  play 4x 
G#|-2---2---2---2---2---2---2---2---|-3---3---3---5---5---5---7---8---| 
D#|-0---0---0---0---0---0---0---0---|-1---1---1---3---3---3---5---6---| 



    Lead Part, added on 3rd time through Rhythm part 
D#|---------------------------------|---------------------------------| 
A#|---------------------------------|---------------------------------| 
F#|-9---9---9---9---9---9---9---9---|-10--10--10--12--12--12--14--15--| 
C#|---------------------------------|---------------------------------|  play 2x 
G#|-7---7---7---7---7---7---7---7---|-8---8---8---10--10--10--12--13--| 
D#|---------------------------------|---------------------------------| 



    Before Solo 
D#|----------------|----------------| 
A#|-17~------------|----------------|  Top note is Lead 
F#|----------------|----------------| 
C#|-2--------------|----------------| 
G#|-2--------------|----------------| 
D#|-0--------------|----------------| 


Solo Rhythm 1 - Verse Riff 

D#|---------------------------------|------------------------------| 
A#|---------------------------------|------------------------------| 
F#|---------------------------------|------------------------------| 
C#|---------------------------------|------------------------------| 
G#|---------------------------------|-------------8-----5-----8----| 
D#|-0---0-0-0---0---0-0-0---0---0---|-0-0-0---0---6-----3-----6----| 

D#|---------------------------------|--------------------------------| 
A#|---------------------------------|--------------------------------| 
F#|---------------------------------|--------------------------------| 
C#|---------------------------------|--------------------------------| 
G#|---------------------------------|-------------8------5-----3-----| 
D#|-0---0-0-0---0---0-0-0---0---0---|-0-0-0---0---6------3-----1-----| 

D#|---------------------------------|------------------------------| 
A#|---------------------------------|------------------------------| 
F#|---------------------------------|------------------------------| 
C#|---------------------------------|------------------------------| 
G#|---------------------------------|-------------8-----5-----8----| 
D#|-0---0-0-0---0---0-0-0---0---0---|-0-0-0---0---6-----3-----6----| 

D#|---------------------------------|---------------------------------| 
A#|---------------------------------|---------------------------------| 
F#|---------------------------------|---------------------------------| 
C#|---------------------------------|---------------------------------| 
G#|---------------------------------|---------------------------------| 
D#|-3-3-3---3---3---3---3---3---6---|-2-2-2---2---2---2---2---2---5---| 


Play Solo Rhythm 1 Again 

Solo Rhythm Ending 
D#|----------------|----------------|----------------|----------------| 
A#|----------------|----------------|----------------|----------------| 
F#|----------------|----------------|----------------|----------------| 
C#|-2--------------|-(2)------------|-(2)------------|-(2)------------| 
G#|-2--------------|-(2)------------|-(2)------------|-(2)------------| 
D#|-0--------------|-(0)------------|-(0)------------|-(0)------------| 

D#|---------------------------------|---------------------------------| 
A#|---------------------------------|---------------------------------| 
F#|---------------------------------|---------------------------------| 
C#|---------------------------------|---------------------------------| 
G#|-------------8---7-------7---8---|-------------5-------4-------3---| 
D#|-0-0-0-0-0-0-6---5---0---5---6---|-0-0-0-0-0-0-3---0-0-2---0-0-1---| 

D#|---------------------------------|------------------------------| 
A#|---------------------------------|------------------------------| 
F#|---------------------------------|------------------------------| 
C#|---------------------------------|------------------------------| 
G#|-------------8---7-------7---8---|-------------8-----5-----8----| 
D#|-0-0-0-0-0-0-6---5---0---5---6---|-0-0-0---0---6-----3-----6----| 



Solo 

D#|-t18p17p15------t18p17p15------t18p17p15-----t18-|-t18p17p15------------------------| 
A#|----------17p15----------17p15----------17p15----|-----------17p15--17p15h17~~------| 
F#|-------------------------------------------------|----------------------------------| 
C#|-------------------------------------------------|----------------------------------| 
G#|-------------------------------------------------|----------------------------------| 
D#|-------------------------------------------------|----------------------------------| 


D#|-14h15p14p12---12----12-------------------------|------------------------------------| 
A#|------------------15----14h15p14p12---12----12--|------------------------------------| 
F#|-----------------------------------------15-----|-14h15p14p12---14p12----14PH~-------| 
C#|------------------------------------------------|---------------------14-------------| 
G#|------------------------------------------------|------------------------------------| 
D#|------------------------------------------------|------------------------------------| 


D#|---------------------------|-------------------|-15p10---------------------------------| 
A#|---------10h12---10---12---|-13---12p10-12~----|-------12h15p12p10---------------------| 
F#|------12-------------------|-------------------|-------------------16p14p12-14p12------| 
C#|----12---------------------|-------------------|----------------------------------12---| 
G#|-10------------------------|-------------------|---------------------------------------| 
D#|---------------------------|-------------------|---------------------------------------| 


D#|-17p13-------------------------------|-------------------------|-------------------------| 
A#|------15h18p15p13--15p13-------------|-------------------------|-------------------------| 
F#|------------------------14h16p14p12--|---------------7/9-------|-------------------------| 
C#|-------------------------------------|-------------------------|-8PH-----7---------------| 
G#|-------------------------------------|--------7----------------|--------------10--7------| 
D#|-------------------------------------|-0-----------------------|---------------------10--| 


D#|----------------------10h12p10-------10p7------|-------------------------------------| 
A#|-----------------8h12----------11p10------10p8-|-11p10p8---10p8-----8----------------| 
F#|--------7--10/12-------------------------------|---------9------9p7---9p7---9p7------| 
C#|------8----------------------------------------|--------------------------8-----8p7--| 
G#|-7h10------------------------------------------|-------------------------------------| 
D#|-----------------------------------------------|-------------------------------------| 


D#|---------------12-----|------------------------|----------------10h15p10h15p10-------------------| 
A#|----------------------|-11------10-------------|-------------12----------------12p10-15p12-------| 
F#|--------9-------9-----|------------12--9-------|----------12-------------------------------14p12-| 
C#|----------------------|-8-------7--------------|-------12----------------------------------------| 
G#|--------7-------------|------------10--7-------|-10h14-------------------------------------------| 
D#|-0--------------------|--------------------10--|-------------------------------------------------| 


D#|---------------8h13hp8h13p8------------------|------------0---|-3h6p3p0--6h9p6p0--3h6p3p0--6h9p6p0--| 
A#|------------10--------------10p8-13p10-------|----------------|-------------------------------------| 
F#|---------10----------------------------12p10-|-9PH------------|-------------------------------------| 
C#|------10-------------------------------------|----------------|-------------------------------------| 
G#|-8h12----------------------------------------|----------------|-------------------------------------| 
D#|---------------------------------------------|----------------|-------------------------------------| 


D#|-9h12p9p0--6h9p6p0--9h12p9p0--12h15p12p0--|-9h12p9p0--12h15p12p0--15h18p15p0--15h18p15p0--|-17--------| 
A#|------------------------------------------|-----------------------------------------------|-----------| 
F#|------------------------------------------|-----------------------------------------------|-----------| 
C#|------------------------------------------|-----------------------------------------------|-----------| 
G#|------------------------------------------|-----------------------------------------------|-----------| 
D#|------------------------------------------|-----------------------------------------------|-----------| 


D#|-17h18p17p15-17p15------15p12------12p10------|-10p8------8p6-----6----------------|-------------| 
A#|-------------------17p15-----15p13------13p11-|------11p8-----8p6---8p6---8p6------|-------------| 
F#|----------------------------------------------|-------------------------7-----7p6--|-9PH---------| 
C#|----------------------------------------------|------------------------------------|-------------| 
G#|----------------------------------------------|------------------------------------|-------------| 
D#|----------------------------------------------|------------------------------------|-------------| 


Final Verse 

D#|---------------------------------|------------------------------| 
A#|---------------------------------|------------------------------| 
F#|---------------------------------|------------------------------| 
C#|---------------------------------|------------------------------| 
G#|---------------------------------|-------------8-----5-----8----| 
D#|-0---0-0-0---0---0-0-0---0---0---|-0-0-0---0---6-----3-----6----| 

D#|---------------------------------|--------------------------------| 
A#|---------------------------------|--------------------------------| 
F#|---------------------------------|--------------------------------| 
C#|---------------------------------|--------------------------------| 
G#|---------------------------------|-------------8------5-----3-----| 
D#|-0---0-0-0---0---0-0-0---0---0---|-0-0-0---0---6------3-----1-----| 

D#|---------------------------------|------------------------------| 
A#|---------------------------------|------------------------------| 
F#|---------------------------------|------------------------------| 
C#|---------------------------------|------------------------------| 
G#|---------------------------------|-------------8-----5-----8----| 
D#|-0---0-0-0---0---0-0-0---0---0---|-0-0-0---0---6-----3-----6----| 

D#|---------------------------------|---------------------------------| 
A#|---------------------------------|---------------------------------| 
F#|---------------------------------|---------------------------------| 
C#|---------------------------------|---------------------------------| 
G#|---------------------------------|---------------------------------| 
D#|-3-3-3---3---3---3---3---3---6---|-2-2-2---2---2---2---2---2---5---| 

D#|---------------------------------|--------------------------------| 
A#|---------------------------------|--------------------------------| 
F#|---------------------------------|--------------------------------| 
C#|---------------------------------|--------------------------------| 
G#|---------------------------------|-------------8------5-----8-----| 
D#|-0---0-0-0---0---0-0-0---0---0---|-0-0-0---0---6------3-----6-----| 

D#|---------------------------------|--------------------------------| 
A#|---------------------------------|--------------------------------| 
F#|---------------------------------|--------------------------------| 
C#|---------------------------------|--------------------------------| 
G#|---------------------------------|-------------8------5-----3-----| 
D#|-0---0-0-0---0---0-0-0---0---0---|-0-0-0---0---6------3-----1-----| 

D#|---------------------------------|--------------------------------| 
A#|---------------------------------|--------------------------------| 
F#|---------------------------------|--------------------------------| 
C#|---------------------------------|--------------------------------| 
G#|---------------------------------|-------------8------5-----8-----| 
D#|-0---0-0-0---0---0-0-0---0---0---|-0-0-0---0---6------3-----6-----| 

D#|---------------------------------|------------------------------------| 
A#|---------------------------------|------------------------------------| 
F#|---------------------------------|------------------------------------| 
C#|---------------------------------|------------------------------------| 
G#|---------------------------------|-------------------5----------------| 
D#|-3-3-3---3---3---3---3---3---6---|-8--7--5--8--7--5-----8--7--8--7--5-| 
                                      muted triplets 


Final Chorus 
     
    play 2x 
D#|-----------------------|----------------------|------------------------|---------------------| 
A#|-----------------------|----------------------|------------------------|---------------------| 
F#|-----------------------|----------------------|------------------------|---------------------| 
C#|-2---------------7-----|----------------------|-2----------------7-----|---------------------| 
G#|-2---------------5-----|-8--------5-----7-----|-2----------------5-----|-8--------5-----3----| 
D#|-0---------------------|-6--------3-----5-----|-0----------------------|-6--------3-----1----| 
  "When I say rise up,                             you say war..." 


    play 2x 
D#|-----------------------|----------------------|------------------------|---------------------| 
A#|-----------------------|----------------------|------------------------|---------------------| 
F#|-----------------------|----------------------|------------------------|---------------------| 
C#|-------2---------7-----|----------------------|-------2----------7-----|---------------------| 
G#|-------2---------5-----|-8--------5-----7-----|-------2----------5-----|-8--------5-----3----| 
D#|-0-0-0-0---------------|-6--------3-----5-----|-0-0-0-0----------------|-6--------3-----1----| 


Preverse 3 

D#|---------------------------------|---------------------------------| 
A#|---------------------------------|---------------------------------| 
F#|---------------------------------|---------------------------------| 
C#|---------------------------------|---------------------------------| 
G#|-------------8---7-------7---8---|-------------5-------4-------3---| 
D#|-0-0-0-0-0-0-6---5---0---5---6---|-0-0-0-0-0-0-3---0-0-2---0-0-1---| 

D#|---------------------------------|------------------------------| 
A#|---------------------------------|------------------------------| 
F#|---------------------------------|------------------------------| 
C#|---------------------------------|------------------------------| 
G#|-------------8---7-------7---8---|-------------8-----5-----8----| 
D#|-0-0-0-0-0-0-6---5---0---5---6---|-0-0-0---0---6-----3-----6----| 

D#|---------------------------------|---------------------------------| 
A#|---------------------------------|---------------------------------| 
F#|---------------------------------|---------------------------------| 
C#|---------------------------------|---------------------------------| 
G#|-------------8---7-------7---8---|-------------5-------4-------3---| 
D#|-0-0-0-0-0-0-6---5---0---5---6---|-0-0-0-0-0-0-3---0-0-2---0-0-1---| 

D#|---------------------------------|------------------------------| 
A#|---------------------------------|------------------------------| 
F#|---------------------------------|------------------------------| 
C#|---------------------------------|------------------------------| 
G#|-------------8---7-------7---8---|-------------5-----4-----3----| 
D#|-0-0-0-0-0-0-6---5---0---5---6---|-0-0-0-0-0-0-3-----2-----1----| 

D#|---------------------------------|------------------------------|-------------| 
A#|---------------------------------|------------------------------|-------------| 
F#|---------------------------------|------------------------------|-------------| 
C#|-2-------------------------------|------------------------------|-2-----------| 
G#|-2-------------------------------|-------------5-----4-----3----|-2-----------| 
D#|-0-------------------------------|-------------3-----2-----1----|-0-----------| 
    	
fixar
fixar inscrever-se

enviado porenviado por: tamamoreira
cifra enviadaCorrigida por: sem correções
logo top cifrasComente
ico música do artistaMúsicas deste artista
ico curtiuCurtiu?
ico destaqueDestaque
Petaxxon Comunicação Online

Cifras.com.br - Melhor e mais completo site de cifras e tablaturas do Brasil Mais de 1 milhão de acordes de músicas cadastradas desde 2003
As informações contidas no nosso site são colaborações de seus usuários e podem conter erros, sendo assim, não nos responsabilizamos sobre nenhuma destas.

close
menos
mais
close
Cor dos acordes:

Cor da letra:

close
Alinhar acordes a direita Alinhar acordes a esquerda Alinhar acordes em baixo Alinhar acordes no topo
close
  Mostrar todos os acordes Esconder acordes muito fáceis Esconder acordes fáceis Esconder acordes intermediários
redimensionar
glossário