Cifras e Tablaturas
Cifras Cancelar Versão de Impressão
cifras

Texas In July - C4

fixar na tela  
Exibindo: vídeo-aula ver clipes redimensionar

Tom:

C

ver outros tons
  
Tuning: C G C F A D 


Riff 1a - 00:00 - 00:22 - x3 
- -----------8----6----------------------------8-6-------------------------- 
- -10----------10---10-------10--------------------10-----------10---------- 
- ----9---10-------------7------9---10-7---7------------7---7------9---10-7- 
- ------0--------------0---0------0------0---0--------0---0---0------0------ 
- -------------------------------------------------------------------------- 
- -------------------------------------------------------------------------- 

Riff 1b - 00:07 - 00:22 
- ----------------------------------------------------------------- 
- ----------------------------------------------------------------- 
- ----------------------------------------------------------------- 
- ----------------------------------------------------------------- 
- ---0-0-0-------------0---0-0---0-----0-----0-0-----0-0-0--------- 
- ---0-0-0-------------0---0-0---0-----0-----0-0-----0-0-0--------- 
PM ............................................................... 

- ----------------------------------------------------------------- 
- ----------------------------------------------------------------- 
- ----------------------------------------------------------------- 
- ----------------------------------------------------------------- 
- -----0---0-0---0-----0-----0-0-------0-----0-0-----0-0-0---0---0- 
- -----0---0-0---0-----0-----0-0-------0-----0-0-----0-0-0---0---0- 
PM ............................................................... 

Riff 2 - 00:22 - 00:51 
- ----------------------------------------------------------------- 
- ----------------------------------------------------------------- 
- ----------------------------------------------------------------- 
- ----------------------------------------------------------------- 
- -0-0-0-0---0---0-0---0---0-0---0-------0---0-0---0---0-0---0----- 
- -0-0-0-0---0---0-0---0---0-0---0---0---0---0-0---0---0-0---0---0- 
PM ...............................       ..................... 

- ----------------------------------------------------------------- 
- ----------------------------------------------------------------- 
- ----------------------------------------------------------------- 
- ----------------------------------------------------------------- 
- ---0-0-0---0-0---0---0-0---0---0-------0---0-0---0---0-0---0----- 
- ---0-0-0---0-0---0---0-0---0---0---0---0---0-0---0---0-0-0-0---0- 
PM ...............................       .................   . 

- ----------------------------------------------------------------- 
- ----------------------------------------------------------------- 
- ----------------------------------------------------------------- 
- ----------------------------------------------------------------- 
- ---0-0-0---0---0-0---0---0-0---0-------0---0-0---0---0-0---0----- 
- ---0-0-0---0---0-0---0---0-0---0---0---0---0-0---0---0-0---0---0- 
PM ...............................       ..................... 

- --------------------------------------------------------------------------------- 
- --------------------------------------------------------------------------------- 
- --------------------------------------------------------------------------------- 
- -----------------------------------------------------------------7--------------- 
- ---0-0-0---0-0---0---0-0---0---0-------0---0-0---0---0-0---0-----5-0-0-0--------- 
- ---0-0-0---0-0---0---0-0---0---0---0---0---0-0---0---0-0-0-0---0---0-0-0--------- 
PM ...............................       .................   .       ..... 

Riff 1 - 00:36 - 00:51 

Riff 3 - 00:51 - 00:56 
- ------------------------------------------------- 
- ------------------------------------------------- 
- ------------------------------------------------- 
- -0~---------------------------------------------- 
- -0~---------------------------------------------- 
- -0~---------------------------------------------- 

Riff 4a, Guitar 1 & 2 - 00:56 - 01:30 
- ----------------------------------------------------------------- 
- ----------------------------------------------------------------- 
- ----------------------------------------------------------------- 
- -12----------------------------------------------10-------------- 
- -12(x24)-----------------------------------------10(x8)---------- 
- -12----------------------------------------------10-------------- 
- 
- ----------------------------------------------------------------- 
- ----------------------------------------------------------------- 
- -7(x16)--------------------------9(x8)-----------10(x8)---------- 
- -0-------------------------------0---------------0--------------- 
- ----------------------------------------------------------------- 
- ----------------------------------------------------------------- 


- ----------------------------------------------------------------- 
- ----------------------------------------------------------------- 
- ----------------------------------------------------------------- 
- -8-------------------------------7------------------------------- 
- -8(x16)--------------------------7(x16)-------------------------- 
- -8-------------------------------7------------------------------- 
- 
- ----------------------------------------------------------------- 
- ----------------------------------------------------------------- 
- -15(x16)-------------------------14(x16)------------------------- 
- -0-------------------------------0------------------------------- 
- ----------------------------------------------------------------- 
- ----------------------------------------------------------------- 


- ----------------------------------------------------------------- 
- ----------------------------------------------------------------- 
- -----------------------------------------------------------10-10- 
- -8---------------------------------------------------------x--x-- 
- -8(x30)----------------------------------------------------8--8-- 
- -8--------------------------------------------------------------- 
- 
- -----------------------------------------------------------13-13- 
- -----------------------------------------------------------x--x-- 
- -15(x16)-------------------------10(x14)-------------------10-10- 
- -0-------------------------------0------------------------------- 
- ----------------------------------------------------------------- 
- ----------------------------------------------------------------- 


- ----------------------------------------------------------------- 
- ----------------------------------------------------------------- 
- -9(x16)--------------------------10(x8)----------9(x8)----------- 
- -x-------------------------------x---------------x--------------- 
- -7-------------------------------8---------------7--------------- 
- ----------------------------------------------------------------- 
- 
- -12(x16)-------------------------13(x8)----------12(x8)---------- 
- -x-------------------------------x---------------x--------------- 
- -9-------------------------------10--------------9--------------- 
- ----------------------------------------------------------------- 
- ----------------------------------------------------------------- 
- ----------------------------------------------------------------- 


- ----------------------------------------------------------------- 
- ----------------------------------------------------------------- 
- ----------------------------------------------------------------- 
- -12----------------------------------------------10-------------- 
- -12(x24)-----------------------------------------10(x8)---------- 
- -12----------------------------------------------10-------------- 
- 
- ----------------------------------------------------------------- 
- ----------------------------------------------------------------- 
- -7(x16)--------------------------9(x8)-----------10(x8)---------- 
- -0-------------------------------0---------------0--------------- 
- ----------------------------------------------------------------- 
- ----------------------------------------------------------------- 


- ----------------------------------------------------------------- 
- ----------------------------------------------------------------- 
- ----------------------------------------------------------------- 
- -8-------------------------------7------------------------------- 
- -8(x16)--------------------------7(x16)-------------------------- 
- -8-------------------------------7------------------------------- 
- 
- ----------------------------------------------------------------- 
- ----------------------------------------------------------------- 
- -15(x16)-------------------------14(x16)------------------------- 
- -0-------------------------------0------------------------------- 
- ----------------------------------------------------------------- 
- ----------------------------------------------------------------- 


- ----------------------------------------------------------------- 
- ----------------------------------------------------------------- 
- -----------------------------------------------------------10-10- 
- -8---------------------------------------------------------x--x-- 
- -8(x30)----------------------------------------------------8--8-- 
- -8--------------------------------------------------------------- 
- 
- -----------------------------------------------------------13-13- 
- -----------------------------------------------------------x--x-- 
- -15(x16)-------------------------10(x14)-------------------10-10- 
- -0-------------------------------0------------------------------- 
- ----------------------------------------------------------------- 
- ----------------------------------------------------------------- 


- ----------------------------------------------------------------- 
- ----------------------------------------------------------------- 
- -9-------------------------7--7--6------------------------------- 
- -x(x14)--------------------x--x--x(x16)-------------------------- 
- -7-------------------------5--5--4------------------------------- 
- ----------------------------------------------------------------- 
- 
- -12(x14)-------------------10-10-9(x16)-------------------------- 
- -x-------------------------x--x--x------------------------------- 
- -9-------------------------7--7--6------------------------------- 
- ----------------------------------------------------------------- 
- ----------------------------------------------------------------- 
- ----------------------------------------------------------------- 


Riff 4b - 01:13 - 01:30 
- ----------------------------------------------------------------------------- 
- ----------------10---10p8---10------------------------10---10p8---10--------- 
- -10p9---9-----9----------------9-------10p9---9-----9----------------9------- 
- ------0---0-7------0------0------10h12------0---0-7------0------0------10h12- 
- ----------------------------------------------------------------------------- 
- ----------------------------------------------------------------------------- 
PM      .   .        .      .                 .   .        .      . 

- --------------------------------------------------------------------------- 
- --------------------10p8---10-----------------------------10p8---10-------- 
- -7--------7-------------------9---10--------------------------------9---10- 
- ---7---10-----0h7h8------8------8----10p0-7h10p7p0-10p7-7------7------7---- 
- -----8------8-------------------------------------------------------------- 
- --------------------------------------------------------------------------- 

- --------------------------------------------------------------------------- 
- --------------------10p8---10-----------------------------10p8---10-------- 
- -7--------7-------------------9---10--------------------------------9---10- 
- ---7---10-----0h7h8------8------8----10p0-7h10p7p0-10p7-7------7------7---- 
- -----8------8-------------------------------------------------------------- 
- --------------------------------------------------------------------------- 

- -------------------------------- 
- -10---------10---------10------- 
- ----9---9------9---9------9---9- 
- ------7---7------7---7------7--- 
- -------------------------------- 
- -------------------------------- 
PM      .   .      .   .      . 


Riff 5, Guitar 1 & 2 - 01:30 -01:32 
- --------------------------------- 
- --------------------------------- 
- --------------------------------- 
- --------------------------------- 
- -----------0---0-------------0--- 
- -0---0-0---0---0---0---0-0---0--- 
PM     .     .....       .     . 
- --------------------------------- 
- --------------------------------- 
- --------------------------------- 
- --------------------------------- 
- -----------------------------0--- 
- -------------------0---0-0---0--- 
PM                       .     . 


Riff 6 - 01:32 - 01:45 
- --------------------------------------------------------------------------------- 
- --------------------------------------------------------------------------------- 
- --------------------------------------------------------------------------------- 
- --------------------------------------------------------------------------------- 
- -----------0---0-------------0-------------0---0-------------0------------------- 
- -0---0-0---0---0---0---0-0---0---0---0-0---0---0---0---0-0---0---0---0-0-0---0-0- 
PM     .     .....       .     .       .     .....       .     .       ...     ... 

- ----------------------------------------------------------------------------------------------------------- 
- ----------------------------------------------------------------------------------------------------------- 
- ----------------------------------------------------------------------------------------------------------- 
- ----------------------------------------------------------------------------------------------------------- 
- -----------0---0-------------0-------------0---0-------------0-----------------------------0---0---0------- 
- -0---0-0---0---0---0---0-0---0---0---0-0---0---0---0---0-0---0---0---0-0-0---0-0-0---0-0---0---0---0------- 
PM     .     .....       .     .       .     .....       .     .       ...     ...     .     ......... 

Riff 7 - 01:45 - 01:53 
- ----------------------------------------------------------------- 
- ----------------------------------------------------------------- 
- ----------------------------------------------------------------- 
- ----------------------------------------------------------------- 
- -0-0-0-0-0-0---0-0-0-0---0-0-0-0-0-0---0-0---0-0-0-0-0---0---0-0- 
- -0-0-0-0-0-0---0-0-0-0---0-0-0-0-0-0---0-0---0-0-0-0-0---0---0-0- 
PM ............................................................... 

- ----------------------------------------------------------------- 
- ----------------------------------------------------------------- 
- ----------------------------------------------------------------- 
- ----------------------------------------------------------------- 
- -0-0---0-0-0-0---0-0-0-0-0-0---0-0-0-0---0---0-0-0-0-0---0---0-0- 
- -0-0---0-0-0-0---0-0-0-0-0-0---0-0-0-0---0---0-0-0-0-0---0---0-0- 
PM ............................................................... 


Riff 8, Guitar 1 & 2 - 01:53 - 02:02 - x2 
- ----------------------------------------------------------------- 
- ----------------------------------------------------------------- 
- ----------------------------------------------------------------- 
- ----------------------------------------------------------------- 
- -0-0-0-0-0-0-------------0-0-0-0-0-0-------------0-0-0-0-0-0----- 
- -0-0-0-0-0-0-------------0-0-0-0-0-0-------------0-0-0-0-0-0----- 
PM ............................................................... 
- ----------------------------------------------------------------- 
- ----------------------------------------------------------------- 
- ----------------------------------------------------------------- 
- ----------------------------------------------------------------- 
- -0-0-0-0-0-0---0-0-0-0---0-0-0-0-0-0---0-0-0-0-0-0-0-0-0-0-0----- 
- -0-0-0-0-0-0---0-0-0-0---0-0-0-0-0-0---0-0-0-0-0-0-0-0-0-0-0----- 
PM ............................................................... 


Riff 9a - 02:02 - 02:18 
- ----------------------------------------------------------------- 
- ----------------------------------------------------------------- 
- ----------------------------------------------------------------- 
- -0-0-0-0-0-0-------------0-0-0-0-0-0-------------0-0-0-0-0-0----- 
- -0-0-0-0-0-0-------------0-0-0-0-0-0-------------0-0-0-0-0-0----- 
PM ............................................................... 

- ----------------------------------------------------------------- 
- ----------------------------------------------------------------- 
- ----------------------------------------------------------------- 
- -8-8-8-8-8-8-------------8-8-8-8-7-7-------------7-7-7-7-7-7----- 
- -8-8-8-8-8-8-------------8-8-8-8-7-7-------------7-7-7-7-7-7----- 
PM ............................................................... 

- ----------------------------------------------------------------- 
- ----------------------------------------------------------------- 
- ----------------------------------------------------------------- 
- -8-8-8-8-8-8-------------8-8-8-8-8-8-------------8-8-8-8-8-8----- 
- -8-8-8-8-8-8-------------8-8-8-8-8-8-------------8-8-8-8-8-8----- 
PM ............................................................... 

- ----------------------------------------------------------------- 
- ----------------------------------------------------------------- 
- -------------------------------------------------7-7-7-7-7-7-7-7- 
- -7-7-7-7-7-7-------------7-7-7-7-7-7-------------7-7-7-7-7-7-7-7- 
- -7-7-7-7-7-7-------------7-7-7-7-7-7-------------7-7-7-7-7-7-7-7- 
PM ................................... 

Riff 9b - 02:02 - 02:18 
- ----------------------------------------------------------------- 
- ----------------------------------------------------------------- 
- -7(x16)--------------------------9(x8)-----------10(x8)---------- 
- -0-------------------------------0---------------0--------------- 
- ----------------------------------------------------------------- 
- ----------------------------------------------------------------- 

- ----------------------------------------------------------------- 
- ----------------------------------------------------------------- 
- -15(x16)-------------------------14(x16)------------------------- 
- -0-------------------------------0------------------------------- 
- ----------------------------------------------------------------- 
- ----------------------------------------------------------------- 

- -----------------------------------------------------------13-13- 
- -----------------------------------------------------------x--x-- 
- -15(x16)-------------------------10(x14)-------------------10-10- 
- -0-------------------------------0------------------------------- 
- ----------------------------------------------------------------- 
- ----------------------------------------------------------------- 

- -12(x16)-------------------------13(x8)----------12(x8)---------- 
- -x-------------------------------x---------------x--------------- 
- -9-------------------------------10--------------9--------------- 
- ----------------------------------------------------------------- 
- ----------------------------------------------------------------- 
- ----------------------------------------------------------------- 

Riff 9c - 02:14 - 02:18 
- ----------------------------------------------------------------------- 
- ----------------------------------------------------------------------- 
- -10-10-9(x16)--------------------------10(x8)----------9(x8)----------- 
- -x--x--x-------------------------------x---------------x--------------- 
- -8--8--7-------------------------------8---------------7--------------- 
- ----------------------------------------------------------------------- 

Riff 10, Guitar 1 & 2 - 02:18 - 02:35 
- ----------------------------------------------------------------- 
- ----------------------------------------------------------------- 
- ----------------------------------------------------------------- 
- -12----------------------------------------------10-------------- 
- -12(x24)-----------------------------------------10(x8)---------- 
- -12----------------------------------------------10-------------- 
- 
- ----------------------------------------------------------------- 
- ----------------------------------------------------------------- 
- -7(x16)--------------------------9(x8)-----------10(x8)---------- 
- -0-------------------------------0---------------0--------------- 
- ----------------------------------------------------------------- 
- ----------------------------------------------------------------- 


- ----------------------------------------------------------------- 
- ----------------------------------------------------------------- 
- ----------------------------------------------------------------- 
- -8-------------------------------7------------------------------- 
- -8(x16)--------------------------7(x16)-------------------------- 
- -8-------------------------------7------------------------------- 
- 
- ----------------------------------------------------------------- 
- ----------------------------------------------------------------- 
- -15(x16)-------------------------14(x16)------------------------- 
- -0-------------------------------0------------------------------- 
- ----------------------------------------------------------------- 
- ----------------------------------------------------------------- 


- ----------------------------------------------------------------- 
- ----------------------------------------------------------------- 
- -----------------------------------------------------------10-10- 
- -8---------------------------------------------------------x--x-- 
- -8(x30)----------------------------------------------------8--8-- 
- -8--------------------------------------------------------------- 
- 
- -----------------------------------------------------------13-13- 
- -----------------------------------------------------------x--x-- 
- -15(x16)-------------------------10(x14)-------------------10-10- 
- -0-------------------------------0------------------------------- 
- ----------------------------------------------------------------- 
- ----------------------------------------------------------------- 


- ----------------------------------------------------------------- 
- ----------------------------------------------------------------- 
- -9(x16)--------------------------10(x8)----------9(x8)----------- 
- -x-------------------------------x---------------x--------------- 
- -7-------------------------------8---------------7--------------- 
- ----------------------------------------------------------------- 
- 
- -12(x16)-------------------------13(x8)----------12(x8)---------- 
- -x-------------------------------x---------------x--------------- 
- -9-------------------------------10--------------9--------------- 
- ----------------------------------------------------------------- 
- ----------------------------------------------------------------- 
- ----------------------------------------------------------------- 

Riff 4b - 02:18 - 02:35 


Riff 11, Guitar 1 & 2 - 02:35 - 02:40 
- --------------------------------------------------------------------------------- 
- --------------------------------------------------------------------------------- 
- --------------------------------------------------------------------------------- 
- --------------------------------------------------------------------------------- 
- -----------0---0-------------0-------------0---0-------------0------------------- 
- -0---0-0---0---0---0---0-0---0---0---0-0---0---0---0---0-0---0---0---0-0-0---0-0- 
PM     .     .....       .     .       .     .....       .     .       ...     ... 
- --------------------------------------------------------------------------------- 
- --------------------------------------------------------------------------------- 
- -7(x20)-------------------------------------------------------------------------- 
- -0------------------------------------------------------------------------------- 
- --------------------------------------------------------------------------------- 
- --------------------------------------------------------------------------------- 


Riff 12 - 02:40 - 02:51 - x2 
- --------------------------------------------------------------------------------- 
- --------------------------------------------------------------------------------- 
- --------------------------------------------------------------------------------- 
- --------------------------------------------------------------------------------- 
- -----------0---0-------------0-------------0---0-------------0------------------- 
- -0---0-0---0---0---0---0-0---0---0---0-0---0---0---0---0-0---0---0---0-0-0---0-0- 
PM     .     .....       .     .       .     .....       .     .       ...     ... 

Riff 13 - 02:51 - 03:05 
- ------------------------------------------------------------------------------------------------- 
- ------------------------------------------------------------------------------------------------- 
- ------------------------------------------------------------------------------------------------- 
- -0-----0~---------------------------------------------------------------------------------------- 
- -0-0-0-0~------------------------------------------------------------------0-0-0----------------- 
- -0-0-0-0~------------------------------------------------------------------0-0-0----------------- 
PM   ...                                                                     ..... 

Riff 2 - 03:05 - 03:38 
Riff 1 - 03:05 - 03:38  
  

top 5 | texas in july
top rock'n roll
Outras músicas do artista letras do(a) Texas In July
Top cifras »Top artistas »
Petaxxon Comunicação Online
Cifras.com.br - Melhor e mais completo site de cifras e tablaturas do Brasil
Mais de 1 milhão de acordes de músicas cadastradas desde 2003
As informações contidas no nosso site são colaborações de seus usuários e podem conter erros, sendo assim, não nos responsabilizamos sobre nenhuma destas.
close
menos
mais
close
Cor dos acordes:

Cor da letra:

 

save
close
close
 
redimensionar