Cifras e Tablaturas
Thalles Roberto

Thalles Roberto

Deus Da Força Tablatura Verificada

Compositor : (Thalles Roberto)

Cifras Cancelar Versão de Impressão
cifras

Thalles Roberto - Deus Da Força

fixar na tela  
Exibindo: vídeo-aula ver clipes redimensionar
  Riff 1 Intro and Chorus : Am Dm Em7  

e|-----------------------------------------------------------------|  
B|-----------------------------------------------------------------|  
G|-----------------------------------------------------------------|  
D|---------------------------------------------------------5-7-----|  
A|--------3----5-5--3-5p3---------3----5-5--3-5p3-5/7-7--7-----5-5-|  
E|-5-5--5---5--------------5-5--5---5------------------------------|  

e|---------------------|  
B|---------------------|  
G|---------------------|  
D|---------------------|  
A|-3-5p3---5-3-5p3-5---|  
E|---------------------|  

e|-------------------------------------------------------------------|  
B|-------------------------------------------------------------------|  
G|-------------------------------------------------------------------|  
D|-------------------------------------------------------------------|  
A|--------3---5-5--3-5-3--------3---5-5--3-5-3--------3---5-5--3-5-3-|  
E|-5-5--5---5-------------5-5--5--5------------5-5--5---5------------|  

e|--------|  
B|--------|  
G|------7-|  
D|------6-|  
A|-5/7--7-|  
E|--------|  

Riff 2 Verso:  

e|---------------------------------------------------------------------|  
B|---------------------------------------------------------------------|  
G|-------------------------------------------------------------7-7-7-7-|  
D|-------------------------------------------------------6-6-6-6-6-6-6-|  
A|---------3-5-4-3----------3-5-4-3----------3-5-4-3--7--7-7-7-7-7-7-7-|  
E|--5-4-3-----------3-5-4-3----------3-5-4-3---------------------------|  

  

cifra enviadacorrigido por:Acelot
enviado porenviada por:Acelot
top 5 | thalles roberto
top gospel
Outras músicas do artista letras do(a) Thalles Roberto
Top cifras »Top artistas »
Petaxxon Comunicação Online
Cifras.com.br - Melhor e mais completo site de cifras e tablaturas do Brasil
Mais de 1 milhão de acordes de músicas cadastradas desde 2003
As informações contidas no nosso site são colaborações de seus usuários e podem conter erros, sendo assim, não nos responsabilizamos sobre nenhuma destas.
close
menos
mais
close
Cor dos acordes:

Cor da letra:

 

save
close
close
 
redimensionar