Cifras e Tablaturas
Cifras Cancelar Versão de Impressão
cifras

The Amity Affliction - Dr Thunder

fixar na tela  
Exibindo: vídeo-aula ver clipes redimensionar

Tom:

  
Tuning: Drop C# (C# G# C# F# A# D#) 

INTRO 

BOTH GUITARS 
D#|----------------------------------------------------------------------------------------| 
A#|----------------------------------------------------------------------------------------| 
F#|----------------------------------------------------------------------------------------| 
C#|-444-44-4444-4444444-44-4444-4444---777-77-7777-7777----------------------(all this x2)-| 
G#|-444-44-4444-4444444-44-4444-4444---777-77-7777-7777------------------------------------| 
C#|-444-44-4444-4444444-44-4444-4444---777-77-7777-7777---00000000--22222222---------------| 

GUITAR 1 
D#|-171717--1616161616--141414141414141414/16-16161616161616/17-171717171717--| 
A#|---------------------------------------------------------------------------| 
F#|---------------------------------------------------------------------------| 
C#|---------------------------------------------------------------------------| 
G#|---------------------------------------------------------------------------| 
C#|---------------------------------------------------------------------------| 

GUITAR 2 
D#|----------------| 
A#|----------------| 
F#|----------------| 
C#|-4~---7~---2~---| 
G#|-4~---7~---2~---| 
C#|-4~---7~---2~---| 

GUITAR 1 
D#|-171717-1616161616-171717171717171717/19-19191919191919/21-212121212121--| 
A#|-------------------------------------------------------------------------| 
F#|-------------------------------------------------------------------------| 
C#|-------------------------------------------------------------------------| 
G#|-------------------------------------------------------------------------| 
C#|-------------------------------------------------------------------------| 

GUITAR 2 
D#|-----------------| 
A#|-----------------| 
F#|-----------------| 
C#|--4~---0~---7~---| 
G#|--4~---0~---7~---| 
C#|--4~---0~---7~---| 

(Play this last part one more time) 

VERSE 

GUITAR 1 
D#|--------------------------------------------------------| 
A#|--------------------------------------------------------| 
F#|-18-------16------19------18\16--16----14------13-------| 
C#|-x--(x12)-x--(x2)-x--(x2)-x-\x---x(x6)-x--(x4)-x-(x4)---| 
G#|-16-------14------17------16\14--14----12------11-------| 
C#|--------------------------------------------------------| 

D#|--------------------------------------------------------| 
A#|--------------------------------------------------------| 
F#|-18-------16------19------18\16--16----21------16-------| 
C#|-x--(x12)-x--(x2)-x--(x2)-x-\x---x(x6)-x--(x4)-x-(x4)---| 
G#|-16-------14------17------16\14--14----19------14-------| 
C#|--------------------------------------------------------| 

GUITAR 2 
D#|-----------------------------------------------------| 
A#|-----------------------------------------------------| 
F#|-----------------------------------------------------| 
C#|-4--------7-------2---------4--------0-------7-------| 
G#|-4-(x16)--7-(x8)--2-(x8)----4-(x16)--0-(x8)--7-(x8)--| 
C#|-4--------7-------2---------4--------0-------7-------| 

GUITAR 1 
D#|--------------------------------------------------------| 
A#|--------------------------------------------------------| 
F#|-18-------16------19------18\16--16----14------13-------| 
C#|-x--(x12)-x--(x2)-x--(x2)-x-\x---x(x6)-x--(x4)-x-(x4)---| 
G#|-16-------14------17------16\14--14----12------11-------| 
C#|--------------------------------------------------------| 

D#|-----------------------------------------| 
A#|-----------------------------------------| 
F#|-18-------16------19------18\16--16------| 
C#|-x--(x12)-x--(x2)-x--(x2)-x-\x---x(x6)---| 
G#|-16-------14------17------16\14--14------| 
C#|-----------------------------------------| 

GUITAR 2 
D#|---------------------------------------------| 
A#|---------------------------------------------| 
F#|---------------------------------------------| 
C#|-4--------7-------2---------4--------0-------| 
G#|-4-(x16)--7-(x8)--2-(x8)----4-(x16)--0-(x8)--| 
C#|-4--------7-------2---------4--------0-------| 

Pre-Chorus 

GUITAR 1 
D#|--------------------------------------| 
A#|--------------------------------------| 
F#|--21---16-----------------------------| 
C#|--x----x---(don't let the chord ring)-| 
G#|--19---14-----------------------------| 
C#|--------------------------------------| 

GUITAR 2 
D#|---------| 
A#|---------| 
F#|---------| 
C#|-7x--7x--| 
G#|-7x--7x--| 
C#|-7x--7x--| 

Chorus 

GUITAR 1 (x2) 
D#|------------------------------------------------------------------------------------| 
A#|---------------------------------------------------------------17171717-------------| 
F#|-13h14-141414141414---13h14-141414141414---13h14-141414141414------------14141414---| 
C#|------------------------------------------------------------------------------------| 
G#|------------------------------------------------------------------------------------| 
C#|------------------------------------------------------------------------------------| 

D#|---------------------| 
A#|---------------------| 
F#|-18--------16--------| 
C#|-x--(x16)--x--(x16)--| 
G#|-16--------14--------| 
C#|---------------------| 

GUITAR 2 (x2) 
D#|-----------------------------------| 
A#|-----------------------------------| 
F#|-----------------------------------| 
C#|-0--------4--------7-------2-------| 
G#|-0-(x32)--4-(x16)--7-(x8)--2-(x8)--| 
C#|-0--------4--------7-------2-------| 

POST-Chorus/PRE-VERSE 

GUITAR 1 (clean) 
D#|------------------------------------------------------------------------------------------| 
A#|------------------------------------------------------------------------------------------| 
F#|-13-1313-13131313h14---13-1313-13131313h14---16-1616-161616p14---13-1313-13131313h14------| 
C#|------------------------------------------------------------------------------------------| 
G#|------------------------------------(all this x2)-----------------------------------------| 
C#|------------------------------------------------------------------------------------------| 

GUITAR 2 
D#|-------| 
A#|-------| 
F#|-------| 
C#|-0~----| 
G#|-0~----| 
C#|-0~----| 

verse 2 

BOTH GUITARS 
D#|--------------------------------------------------------------------------| 
A#|--------------------------------------------------------------------------| 
F#|--------------------------------------------------------------------------| 
C#|-444-44-4444-4444444-44-4444-4444---777-77-7777-7777---222-22-0000-0000---| 
G#|-444-44-4444-4444444-44-4444-4444---777-77-7777-7777---222-22-0000-0000---| 
C#|-444-44-4444-4444444-44-4444-4444---777-77-7777-7777---222-22-0000-0000---| 

D#|-----------------------------------------------------------------------| 
A#|-----------------------------------------------------------------------| 
F#|-----------------------------------------------------------------------| 
C#|-444-44-4444-4444444-44-4444-4444---777-77-7777-7777---0~--0~--0~--2---| 
G#|-444-44-4444-4444444-44-4444-4444---777-77-7777-7777---0~--0~--0~--2---| 
C#|-444-44-4444-4444444-44-4444-4444---777-77-7777-7777---0~--0~--0~--2---| 

Chorus 

GUITAR 1 (x2) 
D#|------------------------------------------------------------------------------------| 
A#|---------------------------------------------------------------17171717-------------| 
F#|-13h14-141414141414---13h14-141414141414---13h14-141414141414------------14141414---| 
C#|------------------------------------------------------------------------------------| 
G#|------------------------------------------------------------------------------------| 
C#|------------------------------------------------------------------------------------| 

D#|---------------------| 
A#|---------------------| 
F#|-18--------16--------| 
C#|-x--(x16)--x--(x16)--| 
G#|-16--------14--------| 
C#|---------------------| 

GUITAR 2 (x2) 
D#|-----------------------------------| 
A#|-----------------------------------| 
F#|-----------------------------------| 
C#|-0--------4--------7-------2-------| 
G#|-0-(x32)--4-(x16)--7-(x8)--2-(x8)--| 
C#|-0--------4--------7-------2-------| 

POST-Chorus 

GUITAR 1 
D#|-------------------------------------------------------------| 
A#|-14-15--17-14--17-14--15-17--14----14----14-----19----19-----| 
F#|--------------------------------14----14----14-----19----19--| 
C#|-------------------------------------------------------------| 
G#|-------------------------------------------------------------| 
C#|-------------------------------------------------------------| 

GUITAR 2 
D#|-----------------------------| 
A#|-----------------------------| 
F#|-----------------------------| 
C#|-4~---4-4-4--0~--------------| 
G#|-4~---4-4-4--0~----999-9-9---| 
C#|-4~---4-4-4--0~----999-9-9---| 
                      ... . . 

BREAKDOWN 

GUITAR 1 (clean) 
D#|------------------------------------------------------| 
A#|------------------------------------------------------| 
F#|------------------------------------------------------| 
C#|----------14--------------------------14----14h16p14--| 
G#|-12-11-12----12-11h12p11-9---12-11-12----12-----------| 
C#|------------------------------------------------------| 

(you can also use this to harmonize) 
D#|-------------------------------------------------------| 
A#|----------17---------------------------17----17h19p17--| 
F#|-14-13-14----14-13h14p13-11---14-13-14----14-----------| 
C#|-------------------------------------------------------| 
G#|-------------------------------------------------------| 
C#|-------------------------------------------------------| 

GUITAR 2 
D#|---------------------------------------------------------------------| 
A#|---------------------------------------------------------------------| 
F#|---------------------------------------------------------------------| 
C#|-444~-4~-4444~-444444~--444444444---000~-0~-0000~-000000~--00002222--| 
G#|-444~-4~-4444~-444444~--444444444---000~-0~-0000~-000000~--00002222--| 
C#|-444~-4~-4444~-444444~--444444444---000~-0~-0000~-000000~--00002222--| 
    ...  .  ....  ......   .........   ...  .  ....  ......   ........ 

D#|--------------------------------------------------------------------------| 
A#|--------------------------------------------------------------------------| 
F#|--------------------------------------------------------------------------| 
C#|-444~-4~-4444~-444444~--444444444---000~-0~-0000~-000000~--000--00002222--| 
G#|-444~-4~-4444~-444444~--444444444---000~-0~-0000~-000000~--000--00002222--| 
C#|-444~-4~-4444~-444444~--444444444---000~-0~-0000~-000000~--000--00002222--| 
    ...  .  ....  ......   .........   ...  .  ....  ......   ...  ........ 

Chorus 

GUITAR 1 (x3) 
D#|------------------------------------------------------------------------------------| 
A#|---------------------------------------------------------------17171717-------------| 
F#|-13h14-141414141414---13h14-141414141414---13h14-141414141414------------14141414---| 
C#|------------------------------------------------------------------------------------| 
G#|------------------------------------------------------------------------------------| 
C#|------------------------------------------------------------------------------------| 

D#|---------------------| 
A#|---------------------| 
F#|-18--------16--------| 
C#|-x--(x16)--x--(x16)--| 
G#|-16--------14--------| 
C#|---------------------| 

GUITAR 2 (x3) 
D#|-----------------------------------| 
A#|-----------------------------------| 
F#|-----------------------------------| 
C#|-0--------4--------7-------2-------| 
G#|-0-(x32)--4-(x16)--7-(x8)--2-(x8)--| 
C#|-0--------4--------7-------2-------| 

GUITAR 1 
D#|-------| 
A#|-------| 
F#|-14~---| 
C#|-x-----| 
G#|-12~---| 
C#|-------| 

GUITAR 2 
D#|-----| 
A#|-----| 
F#|-----| 
C#|-0~--| 
G#|-0~--| 
C#|-0~--| 

Tablature Legend 
---------------- 
h = hammer-on 
p = pull-off 
/ = slide up 
\ = slide down 
~ = let chords ring 
. = palm-mute 
x = mute note 
  

top 5 | the amity affliction
top rock'n roll
Outras músicas do artista letras do(a) The Amity Affliction
Top cifras »Top artistas »
Petaxxon Comunicação Online
Cifras.com.br - Melhor e mais completo site de cifras e tablaturas do Brasil
Mais de 1 milhão de acordes de músicas cadastradas desde 2003
As informações contidas no nosso site são colaborações de seus usuários e podem conter erros, sendo assim, não nos responsabilizamos sobre nenhuma destas.
close
menos
mais
close
Cor dos acordes:

Cor da letra:

 

save
close
close
 
redimensionar