Cifras e Tablaturas
The B-52's

The B-52's

Lava

Cifras Cancelar Versão de Impressão
cifras

The B-52's - Lava

fixar na tela  
Exibindo: vídeo-aula ver clipes redimensionar

Tom:

D

ver outros tons
  
Intro 
                         2X                                                              2X 
B|-----------------------||-3-3-3-3-3-3-3-3-3-3-3-3-3-3-2-0--|----------0-0-----------0--|| 
B|----------------------.||-3-3-3-3-3-3-3-3-3-3-3-3-3-3-2-0--|----------0-0-----------0-.|| 
X|-----------------------||----------------------------------|---------------------------|| 
D|-2-2--0-0--2-0-2-0--0--||-2-2-2-2-0-0-0-0-2-2-2-2-0-0-0-0--|--2-2-2-2------2-2-2-2-----|| 
A|-2-2--0-0--2-0-2-0--0-.||-2-2-2-2-0-0-0-0-2-2-2-2-0-0-0-0--|--2-2-2-2------2-2-2-2----.|| 
D|-2-2--0-0--2-0-2-0--0--||-2-2-2-2-0-0-0-0-2-2-2-2-0-0-0-0--|--2-2-2-2------2-2-2-2-----|| 


Verses 1&2 
                            8X 
B|-0------------------------||-6-6-6-6-6-6-6-6-6-6-6-6-6-6-5-0-|-3-----------------0-0h3---| 
B|-0-----------------------.||-6-6-6-6-6-6-6-6-6-6-6-6-6-6-5-0-|-3-----------------0-0h3---| 
X|--------------------------||---------------------------------|---------------------------| 
D|---2-2--0-0--2-0-2-0--0---||-5-5-5-5-0-0-0-0-5-5-5-5-0-0-0-0-|-3--0-2--0-3-0-3-2---------| 
A|---2-2--0-0--2-0-2-0--0--.||-5-5-5-5-0-0-0-0-5-5-5-5-0-0-0-0-|-3--0-2--0-3-0-3-2---------| 
D|---2-2--0-0--2-0-2-0--0---||-5-5-5-5-0-0-0-0-5-5-5-5-0-0-0-0-|-3--0-2--0-3-0-3-2---------| 
  V1  My Lava's burning.... 
  V2  My love may be as.... 

B|---------------------0-0-----0----|-----------0-0--3-3--3---3---3---3---3-3--0--3----3-----3----3-------| 
B|---------------------0-0-----0----|-----------0-0--3-3--3---3---3---3---3-3--0--3----3-----3----3-------| 
X|----------------------------------|---------------------------------------------------------------------| 
D|-0-3--0-2--0-3-0-3-2-----0-3--0-2-|-0-3-0-3-2------0-3--0-2---0-3-0-3-2---------0-3--0-2--0-3-0-3-2-----| 
A|-0-3--0-2--0-3-0-3-2-----0-3--0-2-|-0-3-0-3-2------0-3--0-2---0-3-0-3-2---------0-3--0-2--0-3-0-3-2-----| 
D|-0-3--0-2--0-3-0-3-2-----0-3--0-2-|-0-3-0-3-2------0-3--0-2---0-3-0-3-2---------0-3--0-2--0-3-0-3-2-----| 

                               2X                2X 
1st=intro, 2nd=V3 
B|-3-3--0-0--|-----0-0----0-0--||------0------0--||-----------------3--2-0--------------------0-----| 
B|-3-3--0-0--|-----0-0----0-0-.||------0------0-.||-----------------3--2-0--------------------0-----| 
X|-----------|-----------------||----------------||-------------------------------------------------| 
D|-----------|-7-9-9--9-7-7----||-7--9---9--7----||-2-2-2-2-2-2-0-2----------0-0-0-0-0-0-0-0--------| 
A|-----------|-7-9-9--9-7-7---.||-7--9---9--7---.||-2-2-2-2-2-2-0-2----------0-0-0-0-0-0-0-0--------| 
D|-----------|-----------------||-7--9---9--7----||-2-2-2-2-2-2-0-2----------0-0-0-0-0-0-0-0--------| 


verse 3 - timing changes a little at the end 2nd time around 
                                                             2X 
B|-3-3-3-3-3-3-3-3-3-3-3-3-3-3-2-0-----------0-0----------0--|| 
B|-3-3-3-3-3-3-3-3-3-3-3-3-3-3-2-0-----------0-0----------0-.|| 
X|-----------------------------------------------------------|| 
D|-2-2-2-2-0-0-0-0-2-2-2-2-0-0-0-0---2-2-2-2------2-2-2-2----|| 
A|-2-2-2-2-0-0-0-0-2-2-2-2-0-0-0-0---2-2-2-2------2-2-2-2---.|| 
E|-2-2-2-2-0-0-0-0-2-2-2-2-0-0-0-0---2-2-2-2------2-2-2-2----|| 
   My love is burning....... 

                      6X 
B|-0------------------||-3-3-3-3-3-3-3-3-3-3-3-3-3-3-2-0----0----0----0-----0--| 
B|-0-----------------.||-3-3-3-3-3-3-3-3-3-3-3-3-3-3-2-0----0----0----0-----0--| 
X|--------------------||-------------------------------------------------------| 
D|-2--2-0-0--2-0-2-0--||-2-2-2-2-0-0-0-0-2-2-2-2-0-0-0-0----2-2--0-0--2-0-2-0--| 
A|-2--2-0-0--2-0-2-0-.||-2-2-2-2-0-0-0-0-2-2-2-2-0-0-0-0----2-2--0-0--2-0-2-0--| 
E|-2--2-0-0--2-0-2-0--||-2-2-2-2-0-0-0-0-2-2-2-2-0-0-0-0----2-2--0-0--2-0-2-0--| 


B|-6-6-6-6-6-6-6-6-6-6-6-6-6-6-5-0--3---------------------0-0h3--| 
B|-6-6-6-6-6-6-6-6-6-6-6-6-6-6-5-0--3---------------------0-0h3--| 
X|---------------------------------------------------------------| 
D|-5-5-5-5-0-0-0-0-5-5-5-5-0-0-0-0----0-3--0-2--0-3-0-3-2--------| 
A|-5-5-5-5-0-0-0-0-5-5-5-5-0-0-0-0----0-3--0-2--0-3-0-3-2--------| 
E|-5-5-5-5-0-0-0-0-5-5-5-5-0-0-0-0----0-3--0-2--0-3-0-3-2--------| 

B|---------------------0-0-----0----|-----------0-0--3-3--3---3---3---3---3-3--0--3----3-----3----3-------| 
B|---------------------0-0-----0----|-----------0-0--3-3--3---3---3---3---3-3--0--3----3-----3----3-------| 
X|----------------------------------|---------------------------------------------------------------------| 
D|-0-3--0-2--0-3-0-3-2-----0-3--0-2-|-0-3-0-3-2------0-3--0-2---0-3-0-3-2---------0-3--0-2--0-3-0-3-2-----| 
A|-0-3--0-2--0-3-0-3-2-----0-3--0-2-|-0-3-0-3-2------0-3--0-2---0-3-0-3-2---------0-3--0-2--0-3-0-3-2-----| 
D|-0-3--0-2--0-3-0-3-2-----0-3--0-2-|-0-3-0-3-2------0-3--0-2---0-3-0-3-2---------0-3--0-2--0-3-0-3-2-----| 

                               2X                4X 
   Lead-In to Outro 
B|-3-3--0-0--|-----0-0----0-0--||------0------0--||-----------------3--2-0--------------------0--|---2--2--| 
B|-3-3--0-0--|-----0-0----0-0-.||------0------0-.||-----------------3--2-0--------------------0--|---2--2--| 
X|-----------|-----------------||----------------||----------------------------------------------|---------| 
D|-----------|-7-9-9--9-7-7----||-7--9---9--7----||-2-2-2-2-2-2-0-2----------0-0-0-0-0-0-0-0-----|---------| 
A|-----------|-7-9-9--9-7-7---.||-7--9---9--7---.||-2-2-2-2-2-2-0-2----------0-0-0-0-0-0-0-0-----|---------| 
D|-----------|-----------------||-7--9---9--7----||-2-2-2-2-2-2-0-2----------0-0-0-0-0-0-0-0-----|---------| 


Outro 
                                    8X 
B|-3-3-3-3-3-3-3-3-3-3-3-3-3-3-2-0--||-----------------------------------------------------------| 
B|-3-3-3-3-3-3-3-3-3-3-3-3-3-3-2-0-.||-----------------------------------------------------------| 
X|----------------------------------||-----------------------------------------------------------| 
D|-2-2-2-2-0-0-0-0-2-2-2-2-0-0-0-0--||-2-2-2-2-2-2-2-2-2-2-2-2-2-2-2-2-2-2-2-2-0-0-0-0---2---2---| 
A|-2-2-2-2-0-0-0-0-2-2-2-2-0-0-0-0-.||-2-2-2-2-2-2-2-2-2-2-2-2-2-2-2-2-2-2-2-2-0-0-0-0---2---2---| 
D|-2-2-2-2-0-0-0-0-2-2-2-2-0-0-0-0--||-2-2-2-2-2-2-2-2-2-2-2-2-2-2-2-2-2-2-2-2-0-0-0-0---2---2---| 
                                       Lava            Red     Hot   Lava-ah 
   yeah 

************************************ 
| h   Hammer-on 
************************************  
  

top 5 | the b-52's
top rock'n roll
Outras músicas do artista letras do(a) The B-52's
1.
Lava
Top cifras »Top artistas »
Petaxxon Comunicação Online
Cifras.com.br - Melhor e mais completo site de cifras e tablaturas do Brasil
Mais de 1 milhão de acordes de músicas cadastradas desde 2003
As informações contidas no nosso site são colaborações de seus usuários e podem conter erros, sendo assim, não nos responsabilizamos sobre nenhuma destas.
close
menos
mais
close
Cor dos acordes:

Cor da letra:

 

save
close
close
 
redimensionar