Cifras e Tablaturas
The Baggios

The Baggios

Estigma

Cifras Cancelar Versão de Impressão
cifras

The Baggios - Estigma

fixar na tela  
Exibindo: vídeo-aula ver clipes redimensionar

Tom:

C

ver outros tons
  C5 D5 D5  (3x) 

Riff 

Eb|--------------- 
Bb|--------------- 
Gb|---5-5-3-5p---- 
Db|-----------5--- 
Ab|--------------- 
Eb|--------------- 


C5 D5 D5 1x 

Riff - contra baixo (feito no teclado) esperar, ou pode tocar junto que fica legal também.  

C5 D5 D5 1x 

Riff 

Eb|--------------- 
Bb|--------------- 
Gb|--------------- 
Db|--------------- 
Ab|-10-10-8hp10--- 
Eb|------------10- 


C5 D5 D5 C4/G 

(3x) 

Eb|------------------------ 
Bb|------------------------ 
Gb|------------------------ 
Db|------------------------ 
Ab|--------8-10-8-10p------ 
Eb|-8-10-10------------10-- 


(1x) 

Eb|--------- 
Bb|--------- 
Gb|--------- 
Db|--------- 
Ab|--------- 
Eb|-8-10-10- 


( C4/G ) 

Parte 02 


Eb|------------------------------------------------------ 
Bb|-10--8---6----------------7-7-5-7-7-5----------------- 
Gb|-12b-10b-8b---5-5v-5v-5v--7-7-5-7-7-5-----5-7v-7v-7v-- 
Db|-----------5h7-7----------7-7-0-7-7-0--5h7-7----------  (2x) 
Ab|------------------------------------------------------ 
Eb|------------------------------------------------------ 


Se contentam com a furia que restou...          

Eb|----------------- 
Bb|----------------- 
Gb|-------5---------  (8x) (levemente abafado) 
Db|-------4-----3--- 
Ab|-3h5-5-5-3h5-3-5- 
Eb|----------------- 


C4/G                   D4/G 
Dizem que há bruxas soltas 
C4/G                   D4/G 
Me convensam por que outra 
                
(4x) 

 C5 D5 D5  (Não deixem te calar...) 
Db|---------------- 
Ab|-8-10-8-10p----- 
Eb|------------10-- 


C5 D5 D5 C4/G 


E a força que sinto e penso...         

Eb|----------------- 
Bb|----------------- 
Gb|-------5---------  (8x) (levemente abafado) 
Db|-------4-----3--- 
Ab|-3h5-5-5-3h5-3-5- 
Eb|----------------- 


C4/G                   D4/G 
Dizem que há bruxas soltas 
C4/G                   D4/G 
Me convensam por que outra 
                
(4x) 

 C5 D5 D5  (Não deixe se enganar...) 
Db|---------------- 
Ab|-8-10-8-10p----- 
Eb|------------10-- 


C5 D5 D5 (C4/G) 

(Solo) 


Final repete: 
C5 D5 D5 C4/G 
E depois a segunda parte da introdução. 
  

cifra enviadasem correções
enviado porenviada por:ang-letra
top 5 | the baggios
top rock'n roll
Outras músicas do artista letras do(a) The Baggios
Top cifras »Top artistas »
Petaxxon Comunicação Online
Cifras.com.br - Melhor e mais completo site de cifras e tablaturas do Brasil
Mais de 1 milhão de acordes de músicas cadastradas desde 2003
As informações contidas no nosso site são colaborações de seus usuários e podem conter erros, sendo assim, não nos responsabilizamos sobre nenhuma destas.
close
menos
mais
close
Cor dos acordes:

Cor da letra:

 

save
close
close
 
redimensionar