Cifras e Tablaturas
The Bananas

The Bananas

Hole In The Ground

Cifras Cancelar Versão de Impressão
cifras

The Bananas - Hole In The Ground

fixar na tela  
Exibindo: vídeo-aula ver clipes redimensionar

Tom:

  
Verse 

e|----------------------------------------------------------------------------------| 
B|----------------------------------------------------------------------------------| 
G|--------------------7------3--------------------7--------------------7------------| 
D|------5------8------7------3------5------8------7------5------8------7------------| 
A|------5------8------5------1------5------8------5------5------8------5------------| 
E|------3------6--------------------3------6-------------3------6-------------------| 

e|--------------------------------------| 
B|--------------------------------------| 
G|------5------3-------------8----------| 
D|------5------3------7------8------5---| 
A|------3------1------7------6------5---| 
E|--------------------5-------------3---| 


Chorus 

e|-------------------------------------------------------------------------------| 
B|-------------------------------------------------------------------------------| 
G|------8--------------------8--------------------8--------------------8---------|   
D|------8------7------5------8------7------5------8------7------8------8------3--|   
A|------6------7------5------6------7------5------6------7------8------6------3--| 
E|-------------5------3-------------5------3-------------5------6-------------1--| 


Solo 

e|---------------------------------------------------------------------------| 
B|---------------------------------------------------------------------------| 
G|12\8/10/12/14/15/17\15\14/15\14\12-14-12-10-12-10-8-10-8-7-8-7-5-7-5-3-5-3-| 
D|---------------------------------------------------------------------------| 
A|---------------------------------------------------------------------------| 
E|---------------------------------------------------------------------------| 

e|-----------3-----------------------------------------3---------------------| 
B|-------------6-4-3-4-3------4-6-4----------------------6-4-3-4-6-4-3-------| 
G|2-3-2-----------------3----------------------------------------------3-----| 
D|------3/5---------------1/3-------8-7-8-10-7-6-7-8-5-----------------------| 
A|---------------------------------------------------------------------------| 
E|---------------------------------------------------------------------------| 

e|---------------------------------------------------------------------------| 
B|----4-6-4-3----------------------------------------------------------------| 
G|---------------------------------------------------------------------------| 
D|1/3---------8-10-7-8-------------------------------------------------------| 
A|---------------------------------------------------------------------------| 
E|---------------------------------------------------------------------------| 


Ending Chord 

e|---| 
B|---| 
G|-3-| 
D|-3-| 
A|-1-| 
E|---| 

************************************ 

 /   Slide up 
 \   Slide down 

************************************ 
  

top 5 | the bananas
top rock'n roll
Outras músicas do artista letras do(a) The Bananas
Top cifras »Top artistas »
Petaxxon Comunicação Online
Cifras.com.br - Melhor e mais completo site de cifras e tablaturas do Brasil
Mais de 1 milhão de acordes de músicas cadastradas desde 2003
As informações contidas no nosso site são colaborações de seus usuários e podem conter erros, sendo assim, não nos responsabilizamos sobre nenhuma destas.
close
menos
mais
close
Cor dos acordes:

Cor da letra:

 

save
close
close
 
redimensionar