Cifras e Tablaturas
The Bangles

The Bangles

Dover Beach

Ano: 2008
Album : All Over the Place

Cifras Cancelar Versão de Impressão

The Bangles - Dover Beach

Tom: A

  			
Intro 
G|---------------------|---------------------|---------------------|---------------------| 
D|---------------------|---------------------|---------------------|---------------------| 
A|--------R------------|-----------R---------|----------R----------|---------R-----------| 
E|---------------------|---------------------|---------------------|-----------------0\--| 

G|---------------------|---------------------|---------------------|---------------------| 
D|---------------------|---------------------|---------------------|----------9-9-9-9/---| 
A|---------------------|---------------------|---------------------|---------------------| 
E|---7-7-7-7-7-7-7-7---|---7-7-7-7-7-7-5h7---|---7-7-7-7-7-7-7-7---|---7--7-7----------0-| 

verse 1 
G|---------------------|---------------------|---------------------|---------------------| 
D|---------------------|---------------------|---------------------|---------------------| 
A|---------------------|--5~-----------------|---------------------|---------------------| 
E|--5~-----------------|---------------------|--5~-----------------|--0~-----------------| 
    If I had the          time     I would       run away with        you 
G|---------------------|---------------------|---------------------|---------------------| 
D|---------------------|---------------------|---------------------|---------------------| 
A|---------------------|--5~-----------------|---------------------|---------------------| 
E|--5~-----------------|---------------------|--5~-----------------|--0~-----------------| 
    To a perfect          world   We'd sus       pend all that is      duty or re- 
G|---------------------|---------------------|---------------------|---------------------| 
D|---------------------|---------------------|---------------------|---------------------| 
A|--2---2-2-----2-0----|--2---2-2-----2-0----|---------------------|---------------------| 
E|---------------------|---------------------|--3---x-3-3----x--3--|---0-0-0-0-0-0-0-0---| 
    quired. 

verse 2 
G|---------------------|---------------------|---------------------|---------------------| 
D|---------------------|---------------------|---------------------|---------------------| 
A|---------------------|--5-5---0---5-5---0--|---------------------|---------------------| 
E|--5-5---0---5-5---0--|---------------------|--5-5---0---5-5---0--|--0-0---0---0-0---0--| 
    Late last night you   cried       And I    couldn't come to       you            But 
G|---------------------|---------------------|---------------------|---------------------| 
D|---------------------|---------------------|---------------------|---------------------| 
A|---------------------|--5-5---0---5-5---0--|---------------------|---------------------| 
E|--5-5---0---5-5---0--|---------------------|--5-5---0---5-5---0--|--0-0---0---0-0---0--| 
    on the other          side                 You and I, in     -   separable and  
G|---------------------|---------------------|---------------------|---------------------| 
D|---------------------|---------------------|---------------------|---------------------| 
A|--2---2-2-----2-0----|--2---2-2-----2-0----|---------------------|---------------------| 
E|---------------------|---------------------|---3-3-3-3-3-3-3-3---|---0-0-0-0-0-0-0-0---| 
    walking,                        yeah         oh                    woh. 

Solo 1 
G|---------------------|---------------------|---------------------|---------------------| 
D|---------------------|---------------------|---------------------|---------------------| 
A|---------------------|--5-5---0---5-5---0--|---------------------|---------------------| 
E|--5-5---0---5-5---0--|---------------------|--5-5---0---5-5---0--|--0-0---0---0-0---0--| 2x 

G|---------------------|---------------------|---------------------|---------------------| 
D|---------------------|---------------------|---------------------|---------------------| 
A|---------------------|---------------------|---------------------|---------------------| 
E|---3-3-3-3-3-3-3-3---|---3-3-3-3-3-3-3-3---|---3-3-3-3-3-3-3-3---|---3-3-3-3-3-3-3-3---| 

G|---------------------|---------------------|---------------------|---------------------| 
D|---------------------|---------------------|---------------------|---------------------| 
A|---------------------|---------------------|---------------------|---7-7-7-7-7-7\9-5---| 
E|---0-0-0-0-0-0-0-0---|---0-0-0-0-0-0-0-0---|---0-0-0-0-0-0-0-0---|-------------------0-| 
                                                                                       If 
verse 3 
G|---------------------|---------------------|---------------------|---------------------| 
D|---------------------|---------------------|---------------------|---------------------| 
A|---------------------|--5-5---0---5-5---0--|---------------------|---------------------| 
E|--5-5---0---5-5---0--|---------------------|--5-5---0---5-5---0--|--0-0---0---0-0---0--| 
    we could steal a   -  way       Like        jugglers and          thieves        But 
G|---------------------|---------------------|---------------------|---------------------| 
D|---------------------|---------------------|---------------------|---------------------| 
A|---------------------|--5-5---0---5-5---0--|---------------------|---------------------| 
E|--5-5---0---5-5---0--|---------------------|--5-5---0---5-5---0--|--0-0---0---0-0---0--| 
    we could come and     go,            Oh,    and talk of           Michaelange   -   
G|---------------------|---------------------|---------------------|---------------------| 
D|---------------------|---------------------|---------------------|---------------------| 
A|--2---2-2-----2-0----|--2---2-2-----2-0----|---------------------|---------------------| 
E|---------------------|---------------------|---3-3-3-3-3-3-3-3---|---0-0-0-0-0-0-0-0---| 
    lo.                                          Oh                     woh. 

Solo 
G|---------------------|---------------------|---------------------|---------------------| 
D|---------------------|---------------------|---------------------|---------------------| 
A|----0~---------------|------------------0--|---2~----------2--0--|---------------------| 
E|---------------0.----|---2~----------2-----|---------------------|--0~-----------------| 

G|---------------------|---------------------|---------------------|---------------------| 
D|---------------------|---------------------|---------------------|---------------------| 
A|----0~---------------|------------------0--|---2~----------------|---------------------| 
E|---------------0.----|---2~----------2-----|---------------------|---0-0-0-0-0-0-0-0---| 
    If we had    the       time   (we had the    time) We have the     time.          
G|---------------------| 
D|---------------------| 
A|---------------------| 
E|---0-0-0-0-0-0-0-0---| 
                    The 

verse 3 
G|---------------------|---------------------|---------------------|---------------------| 
D|---------------------|---------------------|---------------------|---------------------| 
A|---------------------|--5-5---0---5-5---0--|---------------------|---------------------| 
E|--5-5---0---5-5---0--|---------------------|--5-5---0---5-5---0--|--0-0---0---0-0---0--| 
    day you looked at     me,           And     it was on your        mind            The 
G|---------------------|---------------------|---------------------|---------------------| 
D|---------------------|---------------------|---------------------|---------------------| 
A|---------------------|--5-5---0---5-5---0--|---------------------|---------------------| 
E|--5-5---0---5-5---0--|---------------------|--5-5---0---5-5---0--|--0-0---0---0-0---0--| 
    world is no one's     dream,                We will never         ever find the       
G|---------------------|---------------------|---------------------|---------------------| 
D|---------------------|---------------------|---------------------|---------------------| 
A|--2---2-2-----2-0----|--2---2-2-----2-0----|---5-5-5-5-5-5-5-5---|---5-5-5-5-5-5-5-5---| 
E|---------------------|---------------------|---------------------|---------------------| 
    time.                                         Oh                   woh 

Coda 
G|---------------------|---------------------|---------------------|---------------------| 
D|--\7~----------------|---0~----------------|---------------------|---------------------| 
A|---------------------|---------------------|---------------------|---------------------| 
E|---------------------|---------------------|----5~---------------|---0~----------------| 
    If we had the          time     I would       run away with        you 
G|---------------------|---------------------|---------------------|---------------------| 
D|---------------------|---------------------|---------------------|---------------------| 
A|---------------------|--5-5---0---5-5---0--|---------------------|--5-5---0---5-5---0--| 
E|--5-5---0---5-5---0--|---------------------|--5-5---0---5-5---0--|---------------------| 
    To a perfect          world                 To a perfect          world 

Outro 
G|---------------------|---------------------|---------------------|---------------------| 
D|---------------------|---------------------|---------------------|---------------------| 
A|---------------------|--5--5-0--5.5--5-0---|---------------------|--5--5-0--5.5--5-0---| 
E|--5--5-0--5.5--5-0---|---------------------|--5--5-0--5.5--5-0---|---------------------| 

G|---------------------|---------------------|---------------------|---------------------| 
D|---------------------|---------------------|---------------------|---------------------| 
A|---------------------|--5-5---0---5-5---0--|---------------------|--5-5---0---5-5---0--| 
E|--5-5---0---5-5---0--|---------------------|--5-5---0---5-5---0--|---------------------|2x 

   (to fade) 
G|---------------------|---------------------|---------------------|---------------------| 
D|---------------------|---------------------|---------------------|---------------------| 
A|---------------------|---------------------|---------------------|---------------------| 
E|--5-5---0---5-5---0--|--5-5---0---5-5---0--|--5-5---0---5-5---0--|--5-5---0---5-5---0--| 

*********************** 
| R - whole rest 
| \ - slide up 
| / - slide down 
| ~ - sustained note 
| . - staccato  
| x - muted note 
*********************** 
    	
fixar
fixar inscrever-se

enviado porenviado por: andrsouza
cifra enviadaCorrigida por: sem correções
logo top cifrasComente
ico música do artistaMúsicas deste artista
ico curtiuCurtiu?
ico destaqueDestaque
Petaxxon Comunicação Online

Cifras.com.br - Melhor e mais completo site de cifras e tablaturas do Brasil Mais de 1 milhão de acordes de músicas cadastradas desde 2003
As informações contidas no nosso site são colaborações de seus usuários e podem conter erros, sendo assim, não nos responsabilizamos sobre nenhuma destas.

close
menos
mais
close
Cor dos acordes:

Cor da letra:

close
Alinhar acordes a direita Alinhar acordes a esquerda Alinhar acordes em baixo Alinhar acordes no topo
close
  Mostrar todos os acordes Esconder acordes muito fáceis Esconder acordes fáceis Esconder acordes intermediários
redimensionar
glossário