Cifras e Tablaturas
The Beatles

The Beatles

Come Together Tablatura Verificada

Ano: 1969
Album : Abbey Road
Compositor : (John Lennon / Paul McCartney)

Cifras Cancelar Versão de Impressão
cifras

The Beatles - Come Together

fixar na tela  
Exibindo: vídeo-aula ver clipes redimensionar
  
Intro:  

e|----------------|----------------|----------------|----------------|  
B|----------------|----------------|----------------|----------------|  
G|-------------10-|-------------10-|-------------10-|-------------10-|  
D|-------------10-|-------------10-|-------------10-|-------------10-|  
A|-------10h12----|-------10h12----|-------10h12----|-------10h12----|  
E|-10-10----------|-10-10----------|-10-10----------|-10-10----------|  

Verse:  

e|------------------|  
B|------------------|  
G|------------------|  
D|--7-7-9-9-7-7-9-9-|  
A|--5-5-5-5-5-5-5-5-|  
E|------------------| (4x)  

e|------------------|-----------------|---|  
B|------------------|-----------------|---|  
G|------------------|-----------------|---|  
D|------------------|-----------------|---|  
A|--7-7-9-9-7-7-9-9-|-7-7-9-9-7-7-9-9-|-5-|  
E|--5-5-5-5-5-5-5-5-|-5-5-5-5-5-5-5-5-|-3-|  

Chorus:  

e|------------------|-----------|  
B|------------------|-----------|  
G|------------------|-----------|  
D|--4-4-4-4-4-4-4-4-|-5-5-5-5-7-|  
A|--2-2-2-2-2-2-0-0-|-5-5-5-5-7-|  
E|------------------|-3-3-3-3-5-|  

Base Solo Keyboard:  

e|------------------|  
B|------------------|  
G|------------------|  
D|--7-7-9-9-7-7-9-9-|  
A|--5-5-5-5-5-5-5-5-|  
E|------------------| (4x)  

e|------------------|-----------------|---|  
B|------------------|-----------------|---|  
G|------------------|-----------------|---|  
D|------------------|-----------------|---|  
A|--7-7-9-9-7-7-9-9-|-7-7-9-9-7-7-9-9-|-5-|  
E|--5-5-5-5-5-5-5-5-|-5-5-5-5-5-5-5-5-|-3-|  

Solo Guitar 1:  

e|---15b17---15b17-15b17r15-13---15b17--15b17---15b17-15b17r15-13-|  
B|----------------------------------------------------------------|  
G|----------------------------------------------------------------|  
D|----------------------------------------------------------------|  
A|----------------------------------------------------------------|  
E|----------------------------------------------------------------|  

e|------------------------------15b17-|  
B|----15b17--15b17-15b17r15-13--------|  
G|------------------------------------|  
D|------------------------------------|  
A|------------------------------------|  
E|------------------------------------|  

Solo Guitar 2:  

e|-----------------------------------------------------------------------|  
B|---15b17----15b17-15b17-15b17r15-13---15b17---15b17--15b17-15b17r15-13-|  
G|-----------------------------------------------------------------------|  
D|-----------------------------------------------------------------------|  
A|-----------------------------------------------------------------------|  
E|-----------------------------------------------------------------------|  

e|-----------------------------------|  
B|-----------------------------13b15-|  
G|----12b14-12b14-12b14r12-10--------|  
D|-----------------------------------|  
A|-----------------------------------|  
E|-----------------------------------|  

End Verse:  

e|----------------------|--------------------|  
B|----------------------|--------------------|  
G|--------------------5-|------------------5-|  
D|----7-7-9-9-7-7-5h7---|--7-7-9-9-7-7-5h7---|  
A|----5-5-5-5-5-5-------|--5-5-5-5-5-5-------|  
E|----------------------|--------------------| (2x)  

e|----------------------|--------------------|  
B|----------------------|--------------------|  
G|----------------------|--------------------|  
D|--------------------5-|------------------5-|  
A|----7-7-9-9-7-7-5h7---|--7-7-9-9-7-7-5h7---|  
E|----5-5-5-5-5-5-------|--5-5-5-5-5-5-------|  

End Solo:  

e|--------13b15-13b15r13-10-----------------------------|  
B|--13b15--------------------13b15----------------13b15-|  
G|---------------------------------10-12b14r12-10-------|  
D|------------------------------------------------------|  
A|------------------------------------------------------|  
E|------------------------------------------------------|  

e|----10-13b15r13-10--------|  
B|--------------------13b15-|  
G|--------------------------|  
D|--------------------------|  
A|--------------------------|  
E|--------------------------|  

e|------------------15b17-15b17-15b17r15-13-15b17-17--20b22r20--17-|  
B|--10-13b15r13-10-------------------------------------------------|  
G|-----------------------------------------------------------------|  
D|-----------------------------------------------------------------|  
A|-----------------------------------------------------------------|  
E|-----------------------------------------------------------------|  

e|--20b22--17-22r20--17--20b22-|  
B|-----------------------------|  
G|-----------------------------|  
D|-----------------------------|  
A|-----------------------------|  
E|-----------------------------|  

e|---13--15b17r15--13--15b17------------------------|  
B|--------------------------------------------13b15-|  
G|----------------------------10-12b14r12-10--------|  
D|--------------------------------------------------|  
A|--------------------------------------------------|  
E|--------------------------------------------------|  

e|--13b15-13b15r13--10--------|  
B|----------------------13b15-|  
G|----------------------------|  
D|----------------------------|  
A|----------------------------|  
E|----------------------------|  

  

top 5 | the beatles
top rock'n roll
Outras músicas do artista letras do(a) The Beatles
Top cifras »Top artistas »
Petaxxon Comunicação Online
Cifras.com.br - Melhor e mais completo site de cifras e tablaturas do Brasil
Mais de 1 milhão de acordes de músicas cadastradas desde 2003
As informações contidas no nosso site são colaborações de seus usuários e podem conter erros, sendo assim, não nos responsabilizamos sobre nenhuma destas.
close
menos
mais
close
Cor dos acordes:

Cor da letra:

 

save
close
close
 
redimensionar