Cifras e Tablaturas
Cifras Cancelar Versão de Impressão
cifras

The Black Box Revelation - Run Wild

fixar na tela  
Exibindo: vídeo-aula ver clipes redimensionar

Tom:

  
Intro 

E|----------------------------| 
B|----------------------------| 
G|----------------------------| 
D|--2-2-2------7-7-7---5-5-5--| 
A|--2-2-2------7-7-7---5-5-5--| 
E|--0-0-0------5-5-5---3-3-3--| 


Verse 

E|----------------------------| 
B|----------------------------| 
G|----------------------------| 
D|--2-2-2------7-7-7---5-5-5--| 
A|--2-2-2------7-7-7---5-5-5--| 
E|--0-0-0------5-5-5---3-3-3--| 


Chorus 

E|----------------------------| 
B|----------------------------| 
G|----------------------------| 
D|--2-2-2------7-7-7---5-5-5--| 
A|--2-2-2------7-7-7---5-5-5--| 
E|--0-0-0------5-5-5---3-3-3--| 

Run wild 
Shatter what you see 
Run wild 
Live it like a dream 


Pont 

E|----------------------------| 
B|----------------------------| 
G|--5h9-9-9-9h7-7-7-7h9-9-9---| 
D|----------------------------| 
A|--5h7-7-7-7h5-5-5-5h7-7-7---| 
E|----------------------------| 

(End on) 

E|------| 
B|------| 
G|------| 
D|--2---| 
A|--2---| 
E|--0---| 


*********************************** 
| h   Hummer-on 
*********************************** 
  

top 5 | the black box revelation
top rock alternativo
Outras músicas do artista letras do(a) The Black Box Revelation
Top cifras »Top artistas »
Petaxxon Comunicação Online
Cifras.com.br - Melhor e mais completo site de cifras e tablaturas do Brasil
Mais de 1 milhão de acordes de músicas cadastradas desde 2003
As informações contidas no nosso site são colaborações de seus usuários e podem conter erros, sendo assim, não nos responsabilizamos sobre nenhuma destas.
close
menos
mais
close
Cor dos acordes:

Cor da letra:

 

save
close
close
 
redimensionar