Cifras e Tablaturas
The Blue Dragon

The Blue Dragon

Another Day

Cifras Cancelar Versão de Impressão
cifras

The Blue Dragon - Another Day

fixar na tela  
Exibindo: vídeo-aula ver clipes redimensionar
  
Intro
 
 (Am)                                                              (Switch to F) 
e|---------------------------------|---------------------------------| 
B|-------1-------0---------0h1-----|-------1-------0---------0h1-----| 
G|---2-------2-------2---------2---|---2-------2-------2---------2---| 
D|-----2-------2-------2---------2-|-----2-------2-------2---------0-| 
A|-0---------------------0---------|-0---------------------0---------| 
E|---------------------------------|---------------------------------| 

 (F)                             (G) 
e|---------------------------------|---------------------------------| 
B|-------1-------0---------0h1-----|-------1-------0-----------------| 
G|---2-------2-------2---------2---|---0-------0---------------------| 
D|-----3-------3-------3---------0-|-----0-------0-------------------| 
A|-3---------------------3---------|---------------------------------| 
E|---------------------------------|-3-------------------------------| 

verse 1 
 (Am)                                                              (Switch to F) 
e|---------------------------------|---------------------------------| 
B|-------1-------0---------0h1-----|-------1-------0---------0h1-----| 
G|---2-------2-------2---------2---|---2-------2-------2---------2---| 
D|-----2-------2-------2---------2-|-----2-------2-------2---------0-| 
A|-0---------------------0---------|-0---------------------0---------| 
E|---------------------------------|---------------------------------| 

 (F)                             (G) 
e|---------------------------------|---------------------------------| 
B|-------1-------0---------0h1-----|-------0-------0h1-------1p0-----| 
G|---2-------2-------2---------2---|---0-------0-------0---------0---| 
D|-----3-------3-------3---------0-|-----0-------0-------0---------0-| 
A|-3---------------------3---------|-----------------------2---------| 
E|---------------------------------|-3-------------------------------| 

 (Am)                                                              (Switch to F) 
e|---------------------------------|---------------------------------| 
B|-------1-------0---------0h1-----|-------1-------0---------0h1-----| 
G|---2-------2-------2---------2---|---2-------2-------2---------2---| 
D|-----2-------2-------2---------2-|-----2-------2-------2---------0-| 
A|-0---------------------0---------|-0---------------------0---------| 
E|---------------------------------|---------------------------------| 

 (F)                             (G) 
e|---------------------------------|---------------------------------| 
B|-------1-------0---------0h1-----|-------0h1-----1p0-------0h1-----| 
G|---2-------2-------2---------2---|---0-------0-------0---------0---| 
D|-----3-------3-------3---------0-|-----0-------0-------0---------0-| 
A|-3---------------------3---------|-----------------------2---------| 
E|---------------------------------|-3-------------------------------| 

Interlude 
 (Am)                                                              (Switch to F) 
e|---------------------------------|---------------------------------| 
B|-------1-------0---------0h1-----|-------1-------0---------0h1-----| 
G|---2-------2-------2---------2---|---2-------2-------2---------2---| 
D|-----2-------2-------2---------2-|-----2-------2-------2---------0-| 
A|-0---------------------0---------|-0---------------------0---------| 
E|---------------------------------|---------------------------------| 

 (F)                             (Switch to G) 
e|---------------------------------|---------------------------------| 
B|-------1-------0---------0h1-----|-------0h1-----1p0-------0h1-----| 
G|---2-------2-------2---------2---|---0-------0-------0---------0---| 
D|-----3-------3-------3---------0-|-----0-------0-------0---------0-| 
A|-3---------------------3---------|-----------------------2---------| 
E|---------------------------------|-3-------------------------------| 

verse 2 
 (Am)                                                              (Switch to F) 
e|---------------------------------|---------------------------------| 
B|-------1-------0---------0h1-----|-------1-------0---------0h1-----| 
G|---2-------2-------2---------2---|---2-------2-------2---------2---| 
D|-----2-------2-------2---------2-|-----2-------2-------2---------0-| 
A|-0---------------------0---------|-0---------------------0---------| 
E|---------------------------------|---------------------------------| 

 (F)                             (G) 
e|---------------------------------|---------------------------------| 
B|-------1-------0---------0h1-----|-------1-------1p0-------0h1-----| 
G|---2-------2-------2---------2---|---0-------0-------0---------0---| 
D|-----3-------3-------3---------0-|-----0-------0-------0---------0-| 
A|-3---------------------3---------|-----------------------2---------| 
E|---------------------------------|-3-------------------------------| 

 (Am)                                                              (Switch to F) 
e|---------------------------------|---------------------------------| 
B|-------1-------0---------0h1-----|-------1-------1p0-------0h1-----| 
G|---2-------2-------2---------2---|---2-------2-------2---------2---| 
D|-----2-------2-------2---------2-|-----2-------2-------2---------0-| 
A|-0---------------------0---------|-0---------------------0---------| 
E|---------------------------------|---------------------------------| 

 (F)                             (G) 
e|---------------------------------|---------------------------------| 
B|-------1-------1p0-------0h1-----|-------1-------1p0-------0h1-----| 
G|---2-------2-------2---------2---|---0-------0-------0---------0---| 
D|-----3-------3-------3---------0-|-----0-------0-------0---------0-| 
A|-3---------------------3---------|-----------------------2---------| 
E|---------------------------------|-3-------------------------------| 

Chorus 1 
 (F)            (G)               (Em)              (Am)              (Switch to F) 
e|-----------------|-----------------|-----------------|-----------------| 
B|-------1---------|-------0---------|-------0---------|-------1---------| 
G|---2-------2---0-|---0-------0---0-|---0-------0---0-|---2-------2---0-| 
D|-----3-------3---|-----0-------0---|-----2-------2---|-----2-------2---| 
A|-3---------------|-----------------|-2---------------|-0---------------| 
E|-----------------|-3---------------|-----------------|-----------------| 

 (F)            (G) 
e|-----------------|-----------------| 
B|-------1---------|-------0h1-------| 
G|---2-------2---0-|---0-------0---0-| 
D|-----3-------3---|-----0-------0---| 
A|-3---------------|-----------------| 
E|-----------------|-3---------------| 

Interlude 
 (Am) 
e|---------------------------------|---------------------------------| 
B|-------1-------0---------0h1-----|-------1-------0-----------------| 
G|---2-------2-------2---------2---|---2-------2---------------------| 
D|-----2-------2-------2---------2-|-----2-------2-------------------| 
A|-0---------------------0---------|-0-------------------------------| 
E|---------------------------------|---------------------------------| 

verse 3 
 (Am)                                                              (Switch to F) 
e|---------------------------------|---------------------------------| 
B|-------1-------0---------0h1-----|-------1-------0---------0h1-----| 
G|---2-------2-------2---------2---|---2-------2-------2---------2---| 
D|-----2-------2-------2---------2-|-----2-------2-------2---------0-| 
A|-0---------------------0---------|-0---------------------0---------| 
E|---------------------------------|---------------------------------| 

 (F)                             (Switch to G) 
e|---------------------------------|---------------------------------| 
B|-------1-------0---------0h1-----|-------0h1-------1p0-----0h1-----| 
G|---2-------2-------2---------2---|---0-------0---------0-------0---| 
D|-----3-------3-------3---------0-|-----0-------0---------0-------0-| 
A|-3---------------------3---------|---------------2-----------------| 
E|---------------------------------|-3-------------------------------| 

 (Am)                                                              (Switch to F) 
e|---------------------------------|---------------------------------| 
B|-------1-------0---------0h1-----|-------1-------0---------0h1-----| 
G|---2-------2-------2---------2---|---2-------2-------2---------2---| 
D|-----2-------2-------2---------2-|-----2-------2-------2---------0-| 
A|-0---------------------0---------|-0---------------------0---------| 
E|---------------------------------|---------------------------------| 

 (F)                             (G) 
e|---------------------------------|---------------------------------| 
B|-------1-------1p0-------0h1-----|-------1-------1p0-------0h1-----| 
G|---2-------2-------2---------2---|---0-------0-------0---------0---| 
D|-----3-------3-------3---------0-|-----0-------0-------0---------0-| 
A|-3---------------------3---------|-----------------------2---------| 
E|---------------------------------|-3-------------------------------| 

 (Am)                                                              (Switch to F) 
e|---------------------------------|---------------------------------| 
B|-------1-------0---------0h1-----|-------1-------0---------0h1-----| 
G|---2-------2-------2---------2---|---2-------2-------2---------2---| 
D|-----2-------2-------2---------2-|-----2-------2-------2---------0-| 
A|-0---------------------0---------|-0---------------------0---------| 
E|---------------------------------|---------------------------------| 

 (F)                             (G) 
e|---------------------------------|-----------------------3---------| 
B|-------1-------1p0-------0h1-----|-------0h1-----1p0-------0-------| 
G|---2-------2-------2---------2---|---0-------0-------0-------0---0-| 
D|-----3-------3-------3---------0-|-----0-------0-------0-------0---| 
A|-3---------------------3---------|---------------------------------| 
E|---------------------------------|-3-------------------------------| 

Chorus 2 
 (F)            (G)               (Em)              (Am)              (Switch to F) 
e|-----------------|-----------------|-----------------|-----------------| 
B|-------1---------|-------0h1-------|-------0---------|-------1---------| 
G|---2-------2---0-|---0-------0---0-|---0-------0---0-|---2-------2---0-| 
D|-----3-------3---|-----0-------0---|-----2-------2---|-----2-------2---| 
A|-3---------------|-----------------|-2---------------|-0---------------| 
E|-----------------|-3---------------|-----------------|-----------------| 

 (F)            (G)                (E)              (Am)              (Switch to F) 
e|-----------------|-----------------|-----------------|-----------------| 
B|-------1---------|-------0h1-------|-------0---------|-------1---------| 
G|---2-------2---0-|---0-------0---0-|---1-------1---1-|---2-------2---0-| 
D|-----3-------3---|-----0-------0---|-----2-------2---|-----2-------2---| 
A|-3---------------|-----------------|-2---------------|-0---------------| 
E|-----------------|-3---------------|-----------------|-----------------| 

 (F)            (G)               (Em)              (Am)              (Switch to F) 
e|-----------------|-----------------|-----------------|-----------------| 
B|-------1---------|-------0h1p0-----|-------0---------|-------1---------| 
G|---2-------2---0-|---0-------0---0-|---0-------0---0-|---2-------2---0-| 
D|-----3-------3---|-----0-------0---|-----2-------2---|-----2-------2---| 
A|-3---------------|-----------------|-2---------------|-0---------------| 
E|-----------------|-3---------------|-----------------|-----------------| 

 (F)            (G)               (A) 
e|-----------------|-----------------|-----------------|-----------------| 
B|-------1---------|-------0h1p0-----|-------2-------2-|-------------2---| 
G|---2-------2---0-|---0-------0---0-|---2-------2-----|-2---2---2-----2-| 
D|-----3-------3---|-----0-------0---|-----2-------2---|---2-------2-----| 
A|-3---------------|-----------------|-0---------------|-------0---------| 
E|-----------------|-3---------------|-----------------|-----------------| 

Bridge 
 (D)             (C)              (G)  
e|-----------------|-----------------|---------------------------------| 
B|-------3---------|-------1p0-------|-------0h1-----1p0---------------| 
G|---2---------2---|---0-------0---0-|---0-------0-------0---0---0---0-| 
D|-----0-----0---0-|-----2-------2---|-----0-------0-------0-------0---| 
A|-0---------------|-3---------------|-------------------------2-------| 
E|-----------------|-----------------|-3-------------------------------| 

 (D)             (C)              (Em)              (G) 
e|-----------------|-----------------|-----------------|---------------------------------| 
B|-------3---------|-------1p0-------|-------0h1-------|-------0h1-----1p0-----3-1-0-----| 
G|---2-------2---2-|---0-------0---0-|---0-------0---0-|---0-------0-------0---------0---| 
D|-----0-------0---|-----2-------2---|-----2-------2---|-----0-------0-------0---------0-| 
A|-0---------------|-3---------------|-2---------------|---------------------------------| 
E|-----------------|-----------------|-----------------|-3-------------------------------| 

Interlude 
 (Am) 
e|---------------------------------|---------------------------------| 
B|-------1-------0---------0h1-----|-------1--(1)--0--(0)----0h1-----| 
G|---2-------2-------2---------2---|---2-------2-------2---------2---| 
D|-----2-------2-------2---------2-|-----2-------2-------2---------0-| 
A|-0---------------------0---------|-0---------------------0---------| 
E|---------------------------------|---------------------------------| 

(The extra notes in parentheses in the second measure of the above are played 
by having the finger on the G string 3rd finger or your pinky gently touch 
the B string as it rings out) 

verse 4 
 (Am)                                                              (Switch to F) 
e|---------------------------------|---------------------------------| 
B|-------1-------0---------0h1-----|-------1-------0---------0h1-----| 
G|---2-------2-------2---------2---|---2-------2-------2---------2---| 
D|-----2-------2-------2---------2-|-----2-------2-------2---------0-| 
A|-0---------------------0---------|-0---------------------0---------| 
E|---------------------------------|---------------------------------| 

 (F)                             (G) 
e|---------------------------------|---------------------------------| 
B|-------1-------1p0-------0h1-----|-------0h1-----1p0-------0h1-----| 
G|---2-------2-------2---------2---|---0-------0-------0---------0---| 
D|-----3-------3-------3---------0-|-----0-------0-------0---------0-| 
A|-3---------------------3---------|-----------------------2---------| 
E|---------------------------------|-3-------------------------------| 

 (Am)                                                              (Switch to F) 
e|---------------------------------|---------------------------------| 
B|-------1-------1p0-------0h1-----|-------1-------1p0-------0h1-----| 
G|---2-------2-------2---------2---|---2-------2-------2---------2---| 
D|-----2-------2-------2---------2-|-----2-------2-------2---------0-| 
A|-0---------------------0---------|-0---------------------0---------| 
E|---------------------------------|---------------------------------| 

 (F)                             (G) 
e|---------------------------------|---------------------------------| 
B|-------1-------1p0-------0h1-----|-------0h1-----1p0-----0h1-------| 
G|---2-------2-------2---------2---|---0-------0-------0-------0-----| 
D|-----3-------3-------3---------0-|-----0-------0-------0-------0---| 
A|-3---------------------3---------|---------------------------------| 
E|---------------------------------|-3-------------------------------| 

 (Gsus4) 
e|------3-----3---------------------------| 
B|-----1--------1-----------------1-------| 
G|----0-----------0-------------0---0-----| 
D|---0--------------0---------0-------0---| 
A|--2-----------------2-------------------| 
E|-3------------------------3-------------| 

Chorus 3 
 (F)            (G)               (Em)              (Am)              (Switch to F) 
e|-----------------|-----------------|-----------------|-----------------| 
B|-------1---------|-------0h1-------|-------0---------|-------1---------| 
G|-----------2-----|---0-------0---0-|---0-------0---0-|---2-------2---0-| 
D|-----3-------3p0-|-----0-------0---|-----2-------2---|-----2-------2---| 
A|-0h3-------------|-----------------|-2---------------|-0---------------| 
E|-----------------|-3---------------|-----------------|-----------------| 

 (F)            (G)                (E)              (Am)              (Switch to F) 
e|-----------------|-----------------|-----------------|-----------------| 
B|-------1---------|-------0h1-------|-------0---------|-------1---------| 
G|---2-------2---0-|---0-------0---0-|---1-------1---1-|---2-------2---0-| 
D|-----3-------3---|-----0-------0---|-----2-------2---|-----2-------2---| 
A|-3---------------|-----------------|-2---------------|-0---------------| 
E|-----------------|-3---------------|-----------------|-----------------| 

 (F)            (G)                (E)              (Am)              (Switch to F) 
e|-----------------|-----------------|-----------------|-----------------| 
B|-------1p0-------|-------0h1-------|-------0---------|-------1---------| 
G|---2-------2---0-|---0-------0---0-|---1-------1---1-|---2-----2-------| 
D|-----3-------3---|-----0-------0---|-----2-------2---|-----2-----2---2-| 
A|-3---------------|-----------------|-2---------------|-0-----------0---| 
E|-----------------|-3---------------|-----------------|-----------------| 

 (F)            (G)                (E)              (Am)              (Switch to F) 
e|-----------------|-----------------|-----------------|-----------------| 
B|-------1---------|-------0h1p0-----|-------0---------|-------1---------| 
G|---2-------2---0-|---0-------0---0-|---1-------1---1-|---2-----2-------| 
D|-----3-------3---|-----0-------0---|-----2-------2---|-----2-----2---2-| 
A|-3---------------|-----------------|-2---------------|-0-----------0---| 
E|-----------------|-3---------------|-----------------|-----------------| 

 (F)               (G)               (Em)              (Am) 
e|-x---------------|-3---------------|-0---------------|-0---------------| 
B|-1---------------|-0---------------|-0---------------|-1---------------| 
G|-2---------------|-0---------------|-0---------------|-2---------------| 
D|-3---------------|-0---------------|-2---------------|-2---------------| 
A|-3---------------|-2---------------|-2---------------|-0---------------| 
E|-1---------------|-3---------------|-0---------------|-x---------------| 

 (F)               (G) 
e|-x---------------|-3---------------|-----------------| 
B|-1---------------|-0---------------|-----------------| 
G|-2---------------|-0---------------|-----------------| 
D|-3---------------|-0---------------|-----------------| 
A|-3---------------|-2---------------|-----------------| 
E|-1---------------|-3---------------|-----------------| 

(For the above two Fs you can use your thumb for the low E string 
or just use the F barre chord) 

Outro 
 (Am) 
e|---------------------------------|---------------------------------|-0---------------| 
B|-------1-------0---------0h1-----|-------1-------0-----------------|-1---------------| 
G|---2-------2-------2---------2---|---2-------2-------2-------------|-2---------------| 
D|-----2-------2-------2---------2-|-----2-------2-------2---0h2-2---|-2---------------| 
A|-0---------------------0---------|-0---------------------0---------|-0---------------| 
E|---------------------------------|---------------------------------|-x---------------| 



************************************ 

| h   Hammer-on 
| p   Pull-off 

************************************ 
  

cifra enviadasem correções
enviado porenviada por:edsooliveira
top 5 | the blue dragon
top rock'n roll
Outras músicas do artista letras do(a) The Blue Dragon
Top cifras »Top artistas »
Petaxxon Comunicação Online
Cifras.com.br - Melhor e mais completo site de cifras e tablaturas do Brasil
Mais de 1 milhão de acordes de músicas cadastradas desde 2003
As informações contidas no nosso site são colaborações de seus usuários e podem conter erros, sendo assim, não nos responsabilizamos sobre nenhuma destas.
close
menos
mais
close
Cor dos acordes:

Cor da letra:

 

save
close
close
 
redimensionar