Cifras e Tablaturas
The Cat Empire

The Cat Empire

Anymore

Cifras Cancelar Versão de Impressão
cifras

The Cat Empire - Anymore

fixar na tela  
Exibindo: vídeo-aula ver clipes redimensionar

Tom:

Fm

ver outros tons
  Intro 

Intro Tab 
  Fm               Db               Fm               C      Eb 
E|----------------|----------------|----------------|----------------| 
B|----------------|----------------|----------------|------1---------| 
G|1-0------1-0----|----------------|1-0-----1-0-----|----0---3-1-0-1-| 
D|----3--------3--|----------------|----3-------3-2-|--2-------------| 
A|------3--------4|----------------|------3---------|3---------------| 
E|----------------|----------------|----------------|----------------| 
  Fm    F          Bbm     C        Fm               C 
E|------1---------|--1-0---0-3-1---|----------------|--------| 
B|----1--4-2-1-2--|2-----1---------|1---------------|--------| 
G|--1------------3|----------------|--1-----0-------|0---1---| 
D|3---------------|----------------|----3-------2---|--------| 
A|----------------|----------------|----------------|--------| 
E|----------------|----------------|----------------|--------| 

Verse Tab 
E|----------------|----------------|----------------|----------------| 
B|----------------|----------------|-------2-2-4-2--|----------------| 
G|-------5-3----- |---5-5-5-5-3---3|---------------5|----------------| 
D|3--5-6-----6-5-3|-------------6--|----------------|-3--------------| 
A|----------------|----------------|----------------|----------------| 
E|----------------|----------------|----------------|----------------| 

E|----------------|----------------|----------------|--------| 
B|----------------|----------------|----------------|--------| 
G|----------------|----------------|----------------|--------| 
D|3--5-6-3--------|-----3-3-3-3-3-3|-2--------------|-2-2-2--| 
A|-----------6-4-6|-4--------------|-----3---1---3--|--------| 
E|----------------|----------------|----------------|--------| 

Verse 
Fm                         Bbm 
I would not tell you how I feel 
                      Eb 
Anymore because I've seen 
                        Fm 
How men find offence in reason 
                         Bbm 
I save my heart for my family 
                     C 
My soul for work, my mind in moving through the world 

Fm                          Bbm 
Although my young ideal is gone 
                   Eb 
My embrace not so blind 
                      Fm 
And my trust is never certain 
F                      Bbm 
I try to find what's among us 
                    C                C7 
Not to unite but to realise that to waste's defeat 

Instrumental 
 Fm  Bbm  Eb  Fm F  Bbm  C C7 

 Fm                   Bbm 
And when uncertainty reveals 
                       Eb 
When the consequences arc 
                          Fm 
And the act seems in the balance 
  F                       Bbm 
Music is born from an instinct 
                            C              C7 
And that is my truth in the moment that I need it most 

Instrumental 
  Fm  Bbm  Eb  Fm F  Bbm  C C7  X6 

 Fm                   Bbm 
And when uncertainty reveals 
                       Eb 
When the consequences arc 
                            Fm 
And the world seems in the balance 
  F                     Bbm 
Music is born from an instinct 
                             C             C7 
And that is my truth in the moment that I need it most 
  

cifra enviadasem correções
enviado porenviada por:victborges
top 5 | the cat empire
top rock'n roll
Outras músicas do artista letras do(a) The Cat Empire
Top cifras »Top artistas »
Petaxxon Comunicação Online
Cifras.com.br - Melhor e mais completo site de cifras e tablaturas do Brasil
Mais de 1 milhão de acordes de músicas cadastradas desde 2003
As informações contidas no nosso site são colaborações de seus usuários e podem conter erros, sendo assim, não nos responsabilizamos sobre nenhuma destas.
close
menos
mais
close
Cor dos acordes:

Cor da letra:

 

save
close
close
 
redimensionar