Cifras e Tablaturas
The Chongkeys
Cifras Cancelar Versão de Impressão Print

The Chongkeys - Zion

Tom: G

  • 0:00 / 0:00
  			

Intro:              | 
         G          |Faster Strums in 0's 
e|------------------000000000000--------------| 
B|------------------000000000000--------------| 
G|------------------000000000000--------------| 
D|--0-0-5-------------------------------------| 
A|--0-0-5---(8X)------------------------------| 
E|--0-0-3-------------------------------------| 
                    | 

        G              G      G         G                    G 
e|---------------x--x-x-3-x--x-x3-x--x-x-3----    -----------------------------------------| 
B|---------------x--x-x-3-x--x-x3-x--x-x-3----    -----------------------------------------| 
G|---------------x--x-x-4-x--x-x4-x--x-x-4----(3x)-----------------------------------------| 
D|---5-5-5-5-5-5------------------------------    ---5-5-5-5-5-5-5-5-5-5-5-5-5-5-5-5-------| 
A|---5-5-5-5-5-5------------------------------    ---5-5-5-5-5-5-5-5-5-5-5-5-5-5-5-5-------| 
E|---3-3-3-3-3-3------------------------------    ---3-3-3-3-3-3-3-3-3-3-3-3-3-3-3-3-------| 

______________________________________________________________________________________________ 
Verse:                                                                            
       G               G        G        G                      G                  
e|---------------x--x-x-3-x--x-x-3-x--x-x-3-    ---------------------------------000000000000--| 
B|---------------x--x-x-3-x--x-x-3-x--x-x-3-    ---------------------------------000000000000--| 
G|---------------x--x-x-4-x--x-x-4-x--x-x-4-(3x)---------------------------------000000000000--| 
D|---5-5-5-5-5-5----------------------------    -5-5-5-5-5-5-5-5-5-5-5-5-5-5-5-5---------------| 
A|---5-5-5-5-5-5----------------------------    -5-5-5-5-5-5-5-5-5-5-5-5-5-5-5-5---------------| 
E|---3-3-3-3-3-3----------------------------    -3-3-3-3-3-3-3-3-3-3-3-3-3-3-3-3---------------| 
   I AM STANDING IN THE LAND OF NOWHERE...                                        
                                                                                  
        G              G        G       G                       G 
e|---------------x--x-x-3-x--x-x-3-x--x-x-3-    ----------------------------------------------| 
B|---------------x--x-x-3-x--x-x-3-x--x-x-3-    ----------------------------------------------| 
G|---------------x--x-x-4-x--x-x-4-x--x-x-4-(3x)----------------------------------------------| 
D|---5-5-5-5-5-5----------------------------    -5-5-5-5-5-5-5-5-5-5-5-5-5-5-5-5-5------------| 
A|---5-5-5-5-5-5----------------------------    -5-5-5-5-5-5-5-5-5-5-5-5-5-5-5-5-5------------| 
E|---3-3-3-3-3-3----------------------------    -3-3-3-3-3-3-3-3-3-3-3-3-3-3-3-3-3------------| 
   WE REMEMBER HIM ON TIMES OF DESPERATION... 

______________________________________________________________________________________________ 

Chorus: 
          G                                        Bb 
e|----------------------------------------------------------------------------------| 
B|----------------------------------------------------------------------------------| 
G|------------------------------------3-3-3-3-3-3-3-3-3-3-3-3-3-3-3-3--3--3---------| 
D|-5-5-5-5-5-5-5-5-5-5-5-5-5-5-5-5----3-3-3-3-3-3-3-3-3-3-3-3-3-3-3-3--3--3---------| 
A|-5-5-5-5-5-5-5-5-5-5-5-5-5-5-5-5----1-1-1-1-1-1-1-1-1-1-1-1-1-1-1-1--1--1---------| 
E|-3-3-3-3-3-3-3-3-3-3-3-3-3-3-3-3--------------------------------------------------| 
   OOHH, YEAH E EHH, Im on my way to zion.. 

          G                     Bb        C 
e -------------------------------------------------------------| 
B -------------------------------------------------------------| 
G ---------------------------3-3-3-3--5-5-5-5-5----------------| (2x) 
D --------------------3-5-5~-3-3-3-3--5-5-5-5-5----------------| 
A ----------------3-5--------1-1-1-1--3-3-3-3-3----------------| 
E -3-3-2h3-3--3-5----------------------------------------------| 
    WHOOH OH OOHH.. YEAH EH EHHHH.. EH! EH! EH! EY! 
______________________________________________________________________________________________ 

2nd Verse: 
       G               G                G 
e|----------------------------------------------000000000000-------------------------------| 
B|----------------------------------------------000000000000-------------------------------| 
G|----------------------------------------------000000000000-------------------------------| 
D|--5-x-5-5---------5-5-5-5---------5-5-5-5--5---------------------------------------------| 
A|--5-x-5-5---------5-5-5-5---------5-5-5-5--5---------------------------------------------| 
E|--3-x-3-3---12\3--3-3-3-3---12\3--3-3-3-3--3---------------------------------------------| 
   PUT THEN INTO THE TEST AND I STRUGGLE AND YET I SURVIVE.. 

       G                 G                             G                     G 
e|----------4-3-2-1-0-----------------------------------------4-3-2-1-0---------------00000000-----| 
B|----------4-3-2-1-0-----------------------------------------4-3-2-1-0---------------00000000-----| 
G|------------------------------------------------------------------------------------00000000-----| 
D|--5-5-5-5-----------5-5-5-5-5-5-------------------5-5-5-5-5-----------5-5-5-5-5-5-5--------------| 
A|--5-5-5-5-----------5-5-5-5-5-5-------------------5-5-5-5-5-----------5-5-5-5-5-5-5--------------| 
E|--3-3-3-3-----------3-3-3-3-3-3---ILLUMINATE ME!--3-3-3-3-3-----------3-3-3-3-3-3-3--------------| 
   MARCHING WITH SACRIFICE... 


-Repeat Chorus- ^ 

______________________________________________________________________________________________ 

Outro: 
      G                 G                 G             G 
e|------------------------------------------------x-xx3-x-xx3--000000000000--0----------------| 
B|------------------------------------------------x-xx3-x-xx3--000000000000--0----------------| 
G|------------------------------------------------x-xx4-x-xx4--000000000000--0----------------| 
D|--5--5-5----------5-5-5-5-------------5-5-5-5-----------------------------------------------| 
A|--5--5-5----------5-5-5-5----------4--5-5-5-5-----------------------------------------------| 
E|--3--3-3-3-3-5p4--3-3-3-3--3-3-2h3----3-3-3-3-3---------------------------------------------| 
  PEACE AND LOVE MY BROTHA... 

Thanks for viewing! At salamat din sa pagmamahal mo sa Pinoy Reggae. :) 


************************************ 

TAB SYMBOLS: 
 \   slide down 
 h   hammer-on 
 ~   vibrato 
 x   Palm note 

************************************ 
    	

enviado porenviado por: robepoiel
cifra enviadaCorrigida por: sem correções
logo top cifrasComente
ico música do artistaMúsicas deste artista
ico curtiuCurtiu?
ico destaqueDestaque
Petaxxon Comunicação Online

Cifras.com.br - Melhor e mais completo site de cifras e tablaturas do Brasil Mais de 1 milhão de acordes de músicas cadastradas desde 2003
As informações contidas no nosso site são colaborações de seus usuários e podem conter erros, sendo assim, não nos responsabilizamos sobre nenhuma destas.

close
menos
mais
close
Cor dos acordes:

Cor da letra:

close
Alinhar acordes a direita Alinhar acordes a esquerda Alinhar acordes em baixo Alinhar acordes no topo
close
  Mostrar todos os acordes Esconder acordes muito fáceis Esconder acordes fáceis Esconder acordes intermediários
redimensionar
glossário