Cifras e Tablaturas
The Coathangers

The Coathangers

Down Down

Cifras Cancelar Versão de Impressão Print

The Coathangers - Down Down

Tom: D

  • 0:00 / 0:00
  			
Intro 

e|---------------------------------------------------------------------------| 
B|---------------------------------------------------------------------------| 
G|---------------------------------------------------------------------------| 
D|---7/8\7---7/10\7---7/12---\7/8\7---7/10\7---7/13\12/13\12/13\12-----------| 
A|---------------------------------------------------------------------------| 
E|---------------------------------------------------------------------------| 

e|---------------------------------------------------------------------------| 
B|---------------------------------------------------------------------------| 
G|---------------------------------------------------------------------------| 
D|---\7/8\7---7/10\7---7/12---\7/8\7---7/10\7---7/13\12/13\12/13\12----------| 
A|---------------------------------------------------------------------------| 
E|---------------------------------------------------------------------------| 

      D5     A#5    D5     A#5    D5     A#5    G5 
e|---------------------------------------------------------------------------| 
B|---------------------------------------------------------------------------| 
G|----7-7-----------7-7-----------7-7----------------------------------------|  x2 
D|----7-7----8-8----7-7----8-8----7-7----8-8----5-5-5-5-5-5-5----------------| 
A|----5-5----8-8----5-5----8-8----5-5----8-8----5-5-5-5-5-5-5----------------| 
E|-----------6-6-----------6-6-----------6-6----3-3-3-3-3-3-3----------------| 


verse 1 

      D5     A#5    D5     A#5    D5     A#5    G5 
e|---------------------------------------------------------------------------| 
B|---------------------------------------------------------------------------| 
G|----7-7-----------7-7-----------7-7----------------------------------------|  x2 
D|----7-7----8-8----7-7----8-8----7-7----8-8----5-5-5-5-5-5-5----------------| 
A|----5-5----8-8----5-5----8-8----5-5----8-8----5-5-5-5-5-5-5----------------| 
E|-----------6-6-----------6-6-----------6-6----3-3-3-3-3-3-3----------------| 


Chorus 1 

      A#5                              C5 
e|---------------------------------------------------------------------------| 
B|---------------------------------------------------------------------------| 
G|----3-3-3-3-3-3-3-3------------------5-5-5-5-5-5-5-5-----------------------| 
D|----3-3-3-3-3-3-3-3------------------5-5-5-5-5-5-5-5-----------------------| 
A|----1-1-1-1-1-1-1-1------------------3-3-3-3-3-3-3-3-----------------------| 
E|---------------------------------------------------------------------------| 
     It's just the way that it goes.. It's just the way that it goes... 


verse 2 

e|---------------------------------------------------------------------------| 
B|---------------------------------------------------------------------------| 
G|---------------------------------------------------------------------------| 
D|---7/8\7---7/10\7---7/12---\7/8\7---7/10\7---7/13\12/13\12/13\12-----------| 
A|---------------------------------------------------------------------------| 
E|---------------------------------------------------------------------------| 

      D5     A#5    D5     A#5    D5     A#5    G5 
e|---------------------------------------------------------------------------| 
B|---------------------------------------------------------------------------| 
G|----7-7-----------7-7-----------7-7----------------------------------------|  x2 
D|----7-7----8-8----7-7----8-8----7-7----8-8----5-5-5-5-5-5-5----------------| 
A|----5-5----8-8----5-5----8-8----5-5----8-8----5-5-5-5-5-5-5----------------| 
E|-----------6-6-----------6-6-----------6-6----3-3-3-3-3-3-3----------------| 


Chorus 2 

      A#5                              C5 
e|---------------------------------------------------------------------------| 
B|---------------------------------------------------------------------------| 
G|----3-3-3-3-3-3-3-3------------------5-5-5-5-5-5-5-5-----------------------| 
D|----3-3-3-3-3-3-3-3------------------5-5-5-5-5-5-5-5-----------------------| 
A|----1-1-1-1-1-1-1-1------------------3-3-3-3-3-3-3-3-----------------------| 
E|---------------------------------------------------------------------------| 

      D5                               F5 
e|---------------------------------------------------------------------------| 
B|---------------------------------------------------------------------------| 
G|----7-7-7-7-7-7-7-7------------------10-10-10-10-10-10-10-10---------------| 
D|----7-7-7-7-7-7-7-7------------------10-10-10-10-10-10-10-10---------------| 
A|----5-5-5-5-5-5-5-5------------------8--8--8--8--8--8--8--8----------------| 
E|---------------------------------------------------------------------------| 

      A#5                              C5                      D5    A#5 
e|---------------------------------------------------------------------------| 
B|---------------------------------------------------------------------------| 
G|----3-3-3-3-3-3-3-3------------------5-5-5-5-5-5-5-5---------7-7-----------| 
D|----3-3-3-3-3-3-3-3------------------5-5-5-5-5-5-5-5---------7-7---8-8-----| 
A|----1-1-1-1-1-1-1-1------------------3-3-3-3-3-3-3-3---------5-5---8-6-----| 
E|-------------------------------------------------------------------6-6-----| 

      A#5                              C5 
e|---------------------------------------------------------------------------| 
B|---------------------------------------------------------------------------| 
G|----3-3-3-3-3-3-3-3------------------5-5-5-5-5-5-5-5-----------------------| 
D|----3-3-3-3-3-3-3-3------------------5-5-5-5-5-5-5-5-----------------------| 
A|----1-1-1-1-1-1-1-1------------------3-3-3-3-3-3-3-3-----------------------| 
E|---------------------------------------------------------------------------| 


Bridge 

e|---------------------------------------------------------------------------| 
B|---------------------------------------------------------------------------| 
G|----7---x-x-x---7---10---9---8-8-----7---x-x-x---7---10---9---8-8----------|  x4 
D|----7---x-x-x---7---10---9---8-8-----7---x-x-x---7---10---9---8-8----------| 
A|----5---x-x-x---5---8----7---6-6-----5---x-x-x---5---8----7---6-6----------| 
E|---------------------------------------------------------------------------| 


Chorus 3 

      A#5                              C5 
e|---------------------------------------------------------------------------| 
B|---------------------------------------------------------------------------| 
G|----3-3-3-3-3-3-3-3------------------5-5-5-5-5-5-5-5-----------------------| 
D|----3-3-3-3-3-3-3-3------------------5-5-5-5-5-5-5-5-----------------------| 
A|----1-1-1-1-1-1-1-1------------------3-3-3-3-3-3-3-3-----------------------| 
E|---------------------------------------------------------------------------| 

      D5                               F5 
e|---------------------------------------------------------------------------| 
B|---------------------------------------------------------------------------| 
G|----7-7-7-7-7-7-7-7------------------10-10-10-10-10-10-10-10---------------| 
D|----7-7-7-7-7-7-7-7------------------10-10-10-10-10-10-10-10---------------| 
A|----5-5-5-5-5-5-5-5------------------8--8--8--8--8--8--8--8----------------| 
E|---------------------------------------------------------------------------| 

     A#5                              C5 
e|---------------------------------------------------------------------------| 
B|---------------------------------------------------------------------------| 
G|----3-3-3-3-3-3-3-3------------------5-5-5-5-5-5-5-5-----------------------| 
D|----3-3-3-3-3-3-3-3------------------5-5-5-5-5-5-5-5-----------------------| 
A|----1-1-1-1-1-1-1-1------------------3-3-3-3-3-3-3-3-----------------------| 
E|---------------------------------------------------------------------------| 

  
verse 3 

Bass line only until... 
                                                G5 
e|---------------------------------------------------------------------------| 
B|---------------------------------------------------------------------------| 
G|---------------------------------------------------------------------------|   
D|----------------------------------------------5-5-5-5-5-5-5----------------| 
A|----------------------------------------------5-5-5-5-5-5-5----------------| 
E|----------------------------------------------3-3-3-3-3-3-3----------------| 
                                             ...Down, down, down, down... 


Chorus 3 

      A#5                              C5 
e|---------------------------------------------------------------------------| 
B|---------------------------------------------------------------------------| 
G|----3-3-3-3-3-3-3-3------------------5-5-5-5-5-5-5-5-----------------------| 
D|----3-3-3-3-3-3-3-3------------------5-5-5-5-5-5-5-5-----------------------| 
A|----1-1-1-1-1-1-1-1------------------3-3-3-3-3-3-3-3-----------------------| 
E|---------------------------------------------------------------------------| 

      D5                               F5 
e|---------------------------------------------------------------------------| 
B|---------------------------------------------------------------------------| 
G|----7-7-7-7-7-7-7-7------------------10-10-10-10-10-10-10-10---------------| 
D|----7-7-7-7-7-7-7-7------------------10-10-10-10-10-10-10-10---------------| 
A|----5-5-5-5-5-5-5-5------------------8--8--8--8--8--8--8--8----------------| 
E|---------------------------------------------------------------------------| 

      A#5                              C5 
e|---------------------------------------------------------------------------| 
B|---------------------------------------------------------------------------| 
G|----3-3-3-3-3-3-3-3------------------5-5-5-5-5-5-5-5-----------------------| 
D|----3-3-3-3-3-3-3-3------------------5-5-5-5-5-5-5-5-----------------------| 
A|----1-1-1-1-1-1-1-1------------------3-3-3-3-3-3-3-3-----------------------| 
E|---------------------------------------------------------------------------| 

      D5                               F5 
e|---------------------------------------------------------------------------| 
B|---------------------------------------------------------------------------| 
G|----7-7-7-7-7-7-7-7------------------10-10-10-10-10-10-10-10---------------| 
D|----7-7-7-7-7-7-7-7------------------10-10-10-10-10-10-10-10---------------| 
A|----5-5-5-5-5-5-5-5------------------8--8--8--8--8--8--8--8----------------| 
E|---------------------------------------------------------------------------| 
      Don't worry babe, don't worry babe... 

      A#5                              C5                      D5    A#5 
e|---------------------------------------------------------------------------| 
B|---------------------------------------------------------------------------| 
G|----3-3-3-3-3-3-3-3------------------5-5-5-5-5-5-5-5---------7-7-----------| 
D|----3-3-3-3-3-3-3-3------------------5-5-5-5-5-5-5-5---------7-7---8-8-----| 
A|----1-1-1-1-1-1-1-1------------------3-3-3-3-3-3-3-3---------5-5---8-6-----| 
E|-------------------------------------------------------------------6-6-----| 

      A#5                              C5 
e|---------------------------------------------------------------------------| 
B|---------------------------------------------------------------------------| 
G|----3-3-3-3-3-3-3-3------------------5-5-5-5-5-5-5-5-----------------------| 
D|----3-3-3-3-3-3-3-3------------------5-5-5-5-5-5-5-5-----------------------| 
A|----1-1-1-1-1-1-1-1------------------3-3-3-3-3-3-3-3-----------------------| 
E|---------------------------------------------------------------------------| 


Outro 

      D5     A#5    D5     A#5    D5     A#5    G5 
e|---------------------------------------------------------------------------| 
B|---------------------------------------------------------------------------| 
G|----7-7-----------7-7-----------7-7----------------------------------------| 
D|----7-7----8-8----7-7----8-8----7-7----8-8----5----------------------------| 
A|----5-5----8-8----5-5----8-8----5-5----8-8----5----------------------------| 
E|-----------6-6-----------6-6-----------6-6----3----------------------------| 


************************************ 

| x   Dead note 
| /   Slide up 
| \   Slide down 

********************************** 
    	

enviado porenviado por: VsWorld
cifra enviadaCorrigida por: sem correções
logo top cifrasComente
ico música do artistaMúsicas deste artista
ico curtiuCurtiu?
ico destaqueDestaque
Petaxxon Comunicação Online

Cifras.com.br - Melhor e mais completo site de cifras e tablaturas do Brasil Mais de 1 milhão de acordes de músicas cadastradas desde 2003
As informações contidas no nosso site são colaborações de seus usuários e podem conter erros, sendo assim, não nos responsabilizamos sobre nenhuma destas.

close
menos
mais
close
Cor dos acordes:

Cor da letra:

close
Alinhar acordes a direita Alinhar acordes a esquerda Alinhar acordes em baixo Alinhar acordes no topo
close
  Mostrar todos os acordes Esconder acordes muito fáceis Esconder acordes fáceis Esconder acordes intermediários
redimensionar
glossário