Cifras e Tablaturas
The Colourist

The Colourist

Yes Yes

Cifras Cancelar Versão de Impressão
cifras

The Colourist - Yes Yes

fixar na tela  
Exibindo: vídeo-aula ver clipes redimensionar

Tom:

  
INTRO (0:03-0:16) 

e|-----12----14--16----12----14--16-14--|--12----14--16----12----14--16-14--| 
B|--14----14--------14----14------------|-----14--------14----14------------| 
G|--------------------------------------|-----------------------------------| 
D|--------------------------------------|-----------------------------------| 
A|--------------------------------------|-----------------------------------| 
E|--------------------------------------|-----------------------------------| 

e|--19-------------16-----19-------------16-----|--19-------------16-----19-------------16-----| 
B|-----19-17-19-17----17-----19-17-19-17----19--|-----19-17-19-17----17-----19-17-19-17----19--| 
G|----------------------------------------------|----------------------------------------------| 
D|----------------------------------------------|----------------------------------------------| 
A|----------------------------------------------|----------------------------------------------| 
E|----------------------------------------------|----------------------------------------------| 


verse 1 (0:16-0:51) 

e|-----12----14--16----12----14--16-14--|--12----14--16----12----14--16-14--| 
B|--14----14--------14----14------------|-----14--------14----14------------| 
G|--------------------------------------|-----------------------------------| 
D|--------------------------------------|-----------------------------------| 
A|--------------------------------------|-----------------------------------| 
E|--------------------------------------|-----------------------------------| 

e|--19-------------16-----19-------------16-----|--19-------------16-----19-------------16----| 
B|-----19-17-19-17----17-----19-17-19-17----19--|-----19-17-19-17----17-----19-17-19-17-------| 
G|----------------------------------------------|---------------------------------------------| 
D|----------------------------------------------|---------------------------------------------| 
A|----------------------------------------------|---------------------------------------------| 
E|----------------------------------------------|---------------------------------------------| 

e|-----12----14--16----12----14--16-14--|--12----14--16----12----14--16-14--| 
B|--14----14--------14----14------------|-----14--------14----14------------| 
G|--------------------------------------|-----------------------------------| 
D|--------------------------------------|-----------------------------------| 
A|--------------------------------------|-----------------------------------| 
E|--------------------------------------|-----------------------------------| 

e|--19-------------16-----19-------------16-----|--19-------------16-----19-------------16----| 
B|-----19-17-19-17----17-----19-17-19-17----19--|-----19-17-19-17----17-----19-17-19-17-------| 
G|----------------------------------------------|---------------------------------------------| 
D|----------------------------------------------|---------------------------------------------| 
A|----------------------------------------------|---------------------------------------------| 
E|----------------------------------------------|---------------------------------------------| 

e|--16--16--16--16--19--19--19--19--|--16--16--16--16--14--14--14--14--| 
B|----------------------------------|----------------------------------| 
G|----------------------------------|----------------------------------| 
D|----------------------------------|----------------------------------| 
A|----------------------------------|----------------------------------| 
E|----------------------------------|----------------------------------| 


Chorus (No lead guitar)  


BRIDGE (1:08-1:15) 

e|--------------------------|---------------------9----| 
B|------7-9----7----7----7--|------7-9----7----7----7--| 
G|--6-9------9----9----9----|--6-9------9----9---------| 
D|--------------------------|--------------------------| 
A|--------------------------|--------------------------| 
E|--------------------------|--------------------------| 


verse 2 (1:15-1:42) 

e|-----12----14--16----12----14--16-14--|--12----14--16----12----14--16-14--| 
B|--14----14--------14----14------------|-----14--------14----14------------| 
G|--------------------------------------|-----------------------------------| 
D|--------------------------------------|-----------------------------------| 
A|--------------------------------------|-----------------------------------| 
E|--------------------------------------|-----------------------------------| 

e|--19-------------16-----19-------------16-----|--19-------------16-----19-------------16-----| 
B|-----19-17-19-17----17-----19-17-19-17----19--|-----19-17-19-17----17-----19-17-19-17----19--| 
G|----------------------------------------------|----------------------------------------------| 
D|----------------------------------------------|----------------------------------------------| 
A|----------------------------------------------|----------------------------------------------| 
E|----------------------------------------------|----------------------------------------------| 

e|-----12----14--16----12----14--16-14--|--12----14--16----12----14--16-14--| 
B|--14----14--------14----14------------|-----14--------14----14------------| 
G|--------------------------------------|-----------------------------------| 
D|--------------------------------------|-----------------------------------| 
A|--------------------------------------|-----------------------------------| 
E|--------------------------------------|-----------------------------------| 

e|--16--16--16--16--19--19--19--19--|--16--16--16--16--14--14--14--14--| 
B|----------------------------------|----------------------------------| 
G|----------------------------------|----------------------------------| 
D|----------------------------------|----------------------------------| 
A|----------------------------------|----------------------------------| 
E|----------------------------------|----------------------------------| 


Chorus (No lead guitar) 


BRIDGE (1:59-2:26) 

e|--12-12-12--12-12-12--12-12-14--14-12-14--|--14-19-16--16-14-16--16-12----------------| 
B|------------------------------------------|----------------------------14--14-14-14---| 
G|------------------------------------------|-------------------------------------------| 
D|------------------------------------------|-------------------------------------------| 
A|------------------------------------------|-------------------------------------------| 
E|------------------------------------------|-------------------------------------------| 

e|--12-12-12--12-12-12--12-12-14--14-12-14--|--14-16-16--16-16-16--16------------------| 
B|------------------------------------------|-------------------------14-14--14-14-14--| 
G|------------------------------------------|------------------------------------------| 
D|------------------------------------------|------------------------------------------| 
A|------------------------------------------|------------------------------------------| 
E|------------------------------------------|------------------------------------------| 

e|--12-12-12--12-12-12--12-12-14--14-12-14--|--14-16-16--16-16-16--16------------------| 
B|------------------------------------------|-------------------------14-14--14-14-14--| 
G|------------------------------------------|------------------------------------------| 
D|------------------------------------------|------------------------------------------| 
A|------------------------------------------|------------------------------------------| 
E|------------------------------------------|------------------------------------------| 

e|--14-14-14--14-14-14--14-------------------|--14-14-14--14-14-14--14-12-12--12-12-12--| 
B|-------------------------14-14--14-14-14---|------------------------------------------| 
G|-------------------------------------------|------------------------------------------| 
D|-------------------------------------------|------------------------------------------| 
A|-------------------------------------------|------------------------------------------| 
E|-------------------------------------------|------------------------------------------| 


Chorus (No lead guitar) 


OUTRO (2:44-2:52) 

e|--------------------------|---------------------9----| 
B|------7-9----7----7----7--|------7-9----7----7----7--| 
G|--6-9------9----9----9----|--6-9------9----9---------| 
D|--------------------------|--------------------------| 
A|--------------------------|--------------------------| 
E|--------------------------|--------------------------| 
  

top 5 | the colourist
top rock'n roll
Outras músicas do artista letras do(a) The Colourist
Top cifras »Top artistas »
Petaxxon Comunicação Online
Cifras.com.br - Melhor e mais completo site de cifras e tablaturas do Brasil
Mais de 1 milhão de acordes de músicas cadastradas desde 2003
As informações contidas no nosso site são colaborações de seus usuários e podem conter erros, sendo assim, não nos responsabilizamos sobre nenhuma destas.
close
menos
mais
close
Cor dos acordes:

Cor da letra:

 

save
close
close
 
redimensionar