Cifras e Tablaturas
The Creepshow

The Creepshow

Sleep Tight

Cifras Cancelar Versão de Impressão
cifras

The Creepshow - Sleep Tight

fixar na tela  
Exibindo: vídeo-aula ver clipes redimensionar

Tom:

  
Intro 
e|---1-----------1------1----1--------------------------1-----------1------1----1----------------------0-| 
B|---1-----------3--------3--3------3----1------1-------1-----------3--------3--3------3----1------1---1-| 
G|---2------2----2----2------3--------3--0--------0-----2------2----2----2------3--------3--0--------0-0-| 
D|---3--------3-----0--------3----3------2----2---------3--------3-----0--------3----3------2----2-----2-| 
A|---3----3------------------1--1--------3--3-----------3----3------------------1--1--------3--3-------3-| 
E|---1--1-----------------------------------------------1--1---------------------------------------------| 

Verse 
e|-1----------1---------1-------------------------1----------1---------1------------------| 
B|-1----------3---------3------------1------------1----------3---------3------------1---1-| 
G|-2----------2---------3------------0------------2----------2---------3------------0---0-| 
D|-3----------0---------3------------2------------3----------0---------3------------2---2-| 
A|-3--------------------1------------3------------3--------------------1------------3---3-| 
E|-1----------------------------------------------1---------------------------------------| 

e|--1----------1---------1-------------------------1----------1---------1--------------| 
B|--1----------3---------3------------1------------1----------3---------3------------1-| 
G|--2----------2---------3------------0------------2----------2---------3------------0-| 
D|--3----------0---------3------------2------------3----------0---------3------------2-| 
A|--3--------------------1------------3------------3--------------------1------------3-| 
E|--1----------------------------------------------1-----------------------------------| 

Pre-Chorus 
e|---------------------------------------------------------------------| 
B|-------3-----------1-----------------------2---------3-----------1---| 
G|-----2---2-------0---0---------2---------0---0-----2---2-------0---0-| 
D|---0-----------2-------------3---3-----2---------0-----------2-------| 
A|-------------3-------------3---------0---------------------3---------| 
E|-------------------------1-------------------------------------------| 

Chorus 
e|--1-----1-----1-------|----1-----1-----1-------| 
B|--1-----3-----3-----1-|----1-----3-----3-----1-| 
G|--2-----2-----3-----0-|----2-----2-----3-----0-| 
D|--3-----0-----3-----2-|----3-----0-----3-----2-| 
A|--3-----------1-----3-|----3-----------1-----3-| 
E|--1-------------------|----1-------------------| 

Verse 
e|-1----------1---------1-------------------------1----------1---------1------------------| 
B|-1----------3---------3------------1------------1----------3---------3------------1---1-| 
G|-2----------2---------3------------0------------2----------2---------3------------0---0-| 
D|-3----------0---------3------------2------------3----------0---------3------------2---2-| 
A|-3--------------------1------------3------------3--------------------1------------3---3-| 
E|-1----------------------------------------------1---------------------------------------| 

Pre-Chorus 
e|---------------------------------------------------------------------| 
B|-------3-----------1-----------------------2---------3-----------1---| 
G|-----2---2-------0---0---------2---------0---0-----2---2-------0---0-| 
D|---0-----------2-------------3---3-----2---------0-----------2-------| 
A|-------------3-------------3---------0---------------------3---------| 
E|-------------------------1-------------------------------------------| 

Bridge  
(distorted) 
e|----------------------------------------| 
B|--------------------------2--2--2--2--2-| 
G|--2--2--2--2--2--2--2--2--0--0--0--0--0-| 
D|--3--3--3--3--3--3--3--3--2--2--2--2--2-| 
A|--3--3--3--3--3--3--3--3--0--0--0--0--0-| 
E|--1--1--1--1--1--1--1--1----------------| 

Pre-Chorus  
(distorted) 
e|---1--1--1----1--1--1--------------------------------------------------------------------------------------| 
B|---3--3--3----3--3--3----3--3--3----3--3--3----1--1--1----1--1--1----------------------------2--2--2--2--2-| 
G|---2--2--2----2--2--2----3--3--3----3--3--3----0--0--0----0--0--0----2--2--2--2--2--2--2--2--0--0--0--0--0-| 
D|---0--0--0----0--0--0----3--3--3----3--3--3----2--2--2----2--2--2----3--3--3--3--3--3--3--3--2--2--2--2--2-| 
A|-------------------------1--1--1----1--1--1----3--3--3----3--3--3----3--3--3--3--3--3--3--3--0--0--0--0--0-| 
E|---------------------------------------------------------------------1--1--1--1--1--1--1--1----------------| 

e|----1--1--1----1--1--1---------------------------------------------| 
B|----3--3--3----3--3--3----3--3--3----3--3--3----1--1--1----1--1--1-| 
G|----2--2--2----2--2--2----3--3--3----3--3--3----0--0--0----0--0--0-| 
D|----0--0--0----0--0--0----3--3--3----3--3--3----2--2--2----2--2--2-| 
A|--------------------------1--1--1----1--1--1----3--3--3----3--3--3-| 
E|-------------------------------------------------------------------| 

(first time is piano, start in the second) 
e|----1--1--1----1--1--1---------------------------------------------| 
B|----3--3--3----3--3--3----3--3--3----3--3--3----1--1--1----1--1--1-| 
G|----2--2--2----2--2--2----3--3--3----3--3--3----0--0--0----0--0--0-| 
D|----0--0--0----0--0--0----3--3--3----3--3--3----2--2--2----2--2--2-| 
A|--------------------------1--1--1----1--1--1----3--3--3----3--3--3-| 
E|-------------------------------------------------------------------| 
  **********************************************************^^^^^^^^^ 

Chorus 
e|-------------1---1-1-1---------------------------------------1---1-1-1-------------------------| 
B|-------------3---3-3-3---3---3-3-3---1---1-1-1---------------3---3-3-3---3---3-3-3---1---1-1-1-| 
G|-2---2-2-2---2---2-2-2---3---3-3-3---0---0-0-0---2---2-2-2---2---2-2-2---3---3-3-3---0---0-0-0-| 
D|-3---3-3-3---0---0-0-0---3---3-3-3---2---2-2-2---3---3-3-3---0---0-0-0---3---3-3-3---2---2-2-2-| 
A|-3---3-3-3---------------1---1-1-1---3---3-3-3---3---3-3-3---------------1---1-1-1---3---3-3-3-| 
E|-1---1-1-1---------------------------------------1---1-1-1-------------------------------------| 

e|-------------1---1-1-1---------------------------------------1---1-1-1------------------------------------| 
B|-------------3---3-3-3---3---3-3-3---1---1-1-1---------------3---3-3-3---3---3-3-3---1---1-1-1---------2--| 
G|-2---2-2-2---2---2-2-2---3---3-3-3---0---0-0-0---2---2-2-2---2---2-2-2---3---3-3-3---0---0-0-0---------0--| 
D|-3---3-3-3---0---0-0-0---3---3-3-3---2---2-2-2---3---3-3-3---0---0-0-0---3---3-3-3---2---2-2-2---------2--| 
A|-3---3-3-3---------------1---1-1-1---3---3-3-3---3---3-3-3---------------1---1-1-1---3---3-3-3---------0--| 
E|-1---1-1-1---------------------------------------1---1-1-1------------------------------------------------| 
  

top 5 | the creepshow
top punk rock
Outras músicas do artista letras do(a) The Creepshow
Top cifras »Top artistas »
Petaxxon Comunicação Online
Cifras.com.br - Melhor e mais completo site de cifras e tablaturas do Brasil
Mais de 1 milhão de acordes de músicas cadastradas desde 2003
As informações contidas no nosso site são colaborações de seus usuários e podem conter erros, sendo assim, não nos responsabilizamos sobre nenhuma destas.
close
menos
mais
close
Cor dos acordes:

Cor da letra:

 

save
close
close
 
redimensionar