Cifras e Tablaturas
The Cribs

The Cribs

Dendrophobia

Cifras Cancelar Versão de Impressão
cifras

The Cribs - Dendrophobia

fixar na tela  
Exibindo: vídeo-aula ver clipes redimensionar

Tom:

  
Intro (x3) 
e|------------------------------| 
B|------------------------------| 
G|-----------------6-6-6--4-4-4-| 
D|-----------------6-6-6--4-4-4-|  
A|-----------------4-4-4--2-2-2-| 
E|-0--2p0-2/4-0-0---------------| 

Verse (x6) 
e|------------------------------| 
B|------------------------------| 
G|-----------------6-6-6--6-6-6-| 
D|-----------------6-6-6--4-4-4-|  
A|-----------------4-4-4--2-2-2-| 
E|-0--2p0-2/4-0-0---------------| 

Chorus (x2) 
e|-------------------------------------------------------------------------------------------------| 
B|-------------------------------------------------------------------------------------------------| 
G|-6-6-6-6-6-6-6-6-6-6-6-6-6-6-6-4/6-6-6-6-6-6-6-6-9-9-9-9-9-9-9-9---------------------------------| 
D|-6-6-6-6-6-6-6-6-6-6-6-6-6-6-6-4/6-6-6-6-6-6-6-6-9-9-9-9-9-9-9-9-7-7-7-7-7-7-7-7-x-8-8-8-8-8-8-8-| 
A|-4-4-4-4-4-4-4-4-4-4-4-4-4-4-4-2/4-4-4-4-4-4-4-4-7-7-7-7-7-7-7-7-7-7-7-7-7-7-7-7-x-8-8-8-8-8-8-8-| 
E|-----------------------------------------------------------------5-5-5-5-5-5-5-5-x-6-6-6-6-6-6-6-| 

Verse (x6) 
e|------------------------------| 
B|------------------------------| 
G|-----------------6-6-6--4-4-4-| 
D|-----------------6-6-6--4-4-4-|  
A|-----------------4-4-4--2-2-2-| 
E|-0--2p0-2/4-0-0---------------| 

Chorus 
e|-------------------------------------------------------------------------------------------------| 
B|-------------------------------------------------------------------------------------------------| 
G|-6-6-6-6-6-6-6-6-6-6-6-6-6-6-6-4/6-6-6-6-6-6-6-6-9-9-9-9-9-9-9-9---------------------------------| 
D|-6-6-6-6-6-6-6-6-6-6-6-6-6-6-6-4/6-6-6-6-6-6-6-6-9-9-9-9-9-9-9-9-7-7-7-7-7-7-7-7-x-8-8-8-8-8-8-8-| 
A|-4-4-4-4-4-4-4-4-4-4-4-4-4-4-4-2/4-4-4-4-4-4-4-4-7-7-7-7-7-7-7-7-7-7-7-7-7-7-7-7-x-8-8-8-8-8-8-8-| 
E|-----------------------------------------------------------------5-5-5-5-5-5-5-5-x-6-6-6-6-6-6-6-| 

e|----------------------------------------------------------------------------------------| 
B|----------------------------------------------------------------------------------------| 
G|-----6-----6-----6-------------6-----6--9-9-9-9-9-9-9-9---------------------------------| 
D|-6-6---6-6---6-6---6-6-6-4/6-6---6-6----9-9-9-9-9-9-9-9-7-7-7-7-7-7-7-7-x-8-8-8-8-8-8-8-| 
A|-4-4---4-4---4-4---4-4-4-2-4-4---4-4----7-7-7-7-7-7-7-7-7-7-7-7-7-7-7-7-x-8-8-8-8-8-8-8-| 
E|--------------------------------------------------------5-5-5-5-5-5-5-5-x-6-6-6-6-6-6-6-| 

Break (x4) 
e|------9------7------5------4-| 
B|-----------------------------| 
G|-/6-6---/6-6---/6-6---/6-6---| 
D|-----------------------------| 
A|-----------------------------| 
E|-----------------------------| 

Chorus (x4) 
e|----------------------------------------------------------------------------------------| 
B|----------------------------------------------------------------------------------------| 
G|-----6-----6-----6-------------6-----6--9-9-9-9-9-9-9-9---------------------------------| 
D|-6-6---6-6---6-6---6-6-6-4/6-6---6-6----9-9-9-9-9-9-9-9-7-7-7-7-7-7-7-7-x-8-8-8-8-8-8-8-| 
A|-4-4---4-4---4-4---4-4-4-2-4-4---4-4----7-7-7-7-7-7-7-7-7-7-7-7-7-7-7-7-x-8-8-8-8-8-8-8-| 
E|--------------------------------------------------------5-5-5-5-5-5-5-5-x-6-6-6-6-6-6-6-| 

Outro 
e|------------------------------| 
B|------------------------------| 
G|-----------------6-6-6--4-4-4-| 
D|-----------------6-6-6--4-4-4-|  
A|-----------------4-4-4--2-2-2-| 
E|-0--2p0-2/4-0-0---------------| 


************************************ 

| p  Pull-off 
| /  Slide up 
| x  Dead note 

************************************ 
  

top 5 | the cribs
top punk rock
Outras músicas do artista letras do(a) The Cribs
Top cifras »Top artistas »
Petaxxon Comunicação Online
Cifras.com.br - Melhor e mais completo site de cifras e tablaturas do Brasil
Mais de 1 milhão de acordes de músicas cadastradas desde 2003
As informações contidas no nosso site são colaborações de seus usuários e podem conter erros, sendo assim, não nos responsabilizamos sobre nenhuma destas.
close
menos
mais
close
Cor dos acordes:

Cor da letra:

 

save
close
close
 
redimensionar