Cifras e Tablaturas
The Cribs

The Cribs

Rainbow Ridge

Cifras Cancelar Versão de Impressão
cifras

The Cribs - Rainbow Ridge

fixar na tela  
Exibindo: vídeo-aula ver clipes redimensionar

Tom:

  
Intro 

e|-x--x--x--x-x-x-| 
B|-x--x--x--x-x-x-| 
G|-x--x--x--x-x-x-| 
D|-x--x--x--x-x-x-| 
A|-x--x--x--x-x-x-| 
E|-x--x--x--x-x-x-| 

verse 1 x2 

e|------------------------------------------------------| 
B|------------------------------------------------------| 
G|-7-x-7-7-7------------------------4-4-4-4-------------| 
D|-7-x-7-7-7--5-x-5-5-5--4-x-4-4-4--4-4-4-4-7-7-7-7-----| 
A|-5-x-5-5-5--5-x-5-5-5--4-x-4-4-4--2-2-2-2-7-7-7-7-----| 
E|------------3-x-3-3-3--2-x-2-2-2----------5-5-5-5-----| 

                                             
e|------------------------------------------------------| 
B|------------------------------------------------------| 
G|-7-x-7-7-7--------------------------------------------| 
D|-7-x-7-7-7--5-5-4-4-4-4--5--5-5--5-5-5-5--555-555-7-7-| 
A|-5-x-5-5-5--5-5-4-4-4-4--5--5-5--5-5-5-5--555-555-7-7-| 
E|------------3-3-2-2-2-2--3--3-3--3-3-3-3--333-333-5-5-| 

Chorus 1 

e|-------------------------------------------------------| 
B|-------------------------------------------------------| 
G|-3--3-3--3-3--7--7-7--7-7--3-3--3--3-3-----------------| 
D|-3--3-3--3-3--7--7-7--7-7--3-3--3--3-3--2--2-0---------| 
A|-1--1-1--1-1--5--5-5--5-5--1-1--1--1-1--2--2-0---------| 
E|-----------------------------------------------2p0-2p0-| 

"Don't look for me.." 
e|-------------------------------------------------------| 
B|-------------------------------------------------------| 
G|--------------4--4-4--4-4---------------4--4-4--4-4----| 
D|-5--5-5--5-5--4--4-4--4-4--5--5-5--5-5--4--4-4--4-4----| 
A|-5--5-5--5-5--2--2-2--2-2--5--5-5--5-5--2--2-2--2-2----| 
E|-3--3-3--3-3---------------3--3-3--3-3-----------------| 

e|------------------------------------------------------------| 
B|------------------------------------------------------------| 
G|--------------4-4-4-4-4-4-4-4--3--3-3--3-3-3--3--3-3--3-3-3-| 
D|-5--5-5--5-5--4-4-4-4-4-4-4-4--3--3-3--3-3-3--3--3-3--3-3-3-| 
A|-5--5-5--5-5--2-2-2-2-2-2-2-2--1--1-1--1-1-1--1--1-1--1-1-1-| 
E|-3--3-3--3-3------------------------------------------------| 

verse 2 x2 

e|------------------------------------------------------| 
B|------------------------------------------------------| 
G|-7-x-7-7-7------------------------4-4-4-4-------------| 
D|-7-x-7-7-7--5-x-5-5-5--4-x-4-4-4--4-4-4-4-7-7-7-7-----| 
A|-5-x-5-5-5--5-x-5-5-5--4-x-4-4-4--2-2-2-2-7-7-7-7-----| 
E|------------3-x-3-3-3--2-x-2-2-2----------5-5-5-5-----| 

                                             
e|------------------------------------------------------| 
B|------------------------------------------------------| 
G|-7-x-7-7-7--------------------------------------------| 
D|-7-x-7-7-7--5-5-4-4-4-4--5--5-5--5-5-5-5--555-555-7-7-| 
A|-5-x-5-5-5--5-5-4-4-4-4--5--5-5--5-5-5-5--555-555-7-7-| 
E|------------3-3-2-2-2-2--3--3-3--3-3-3-3--333-333-5-5-| 


Chorus 2 

e|-------------------------------------------------------| 
B|-------------------------------------------------------| 
G|-3--3-3--3-3--7--7-7--7-7--3-3--3--3-3-----------------| 
D|-3--3-3--3-3--7--7-7--7-7--3-3--3--3-3--2--2-0---------| 
A|-1--1-1--1-1--5--5-5--5-5--1-1--1--1-1--2--2-0---------| 
E|-----------------------------------------------2p0-2p0-| 

"Don't look for me.." 
e|-------------------------------------------------------| 
B|-------------------------------------------------------| 
G|--------------4--4-4--4-4---------------4--4-4--4-4----| 
D|-5--5-5--5-5--4--4-4--4-4--5--5-5--5-5--4--4-4--4-4----| 
A|-5--5-5--5-5--2--2-2--2-2--5--5-5--5-5--2--2-2--2-2----| 
E|-3--3-3--3-3---------------3--3-3--3-3-----------------| 

e|--------------------------------------------------------| 
B|--------------------------------------------------------| 
G|--------------4-4-4-4-4-4-4-4--3--3-3--3-3--7--7-7--7-7-| 
D|-5--5-5--5-5--4-4-4-4-4-4-4-4--3--3-3--3-3--7--7-7--7-7-| 
A|-5--5-5--5-5--2-2-2-2-2-2-2-2--1--1-1--1-1--5--5-5--5-5-| 
E|-3--3-3--3-3--------------------------------------------| 
                              
                              "Don't look for me" 
e|-------------------------------------------------------| 
B|-------------------------------------------------------| 
G|-3-3--3-----------------------------------4--4-4--4-4--| 
D|-3-3--3------2--2-0----------5--5-5--5-5--4--4-4--4-4--| 
A|-1-1--1------2--2-0----------5--5-5--5-5--2--2-2--2-2--| 
E|---------12\--------2p0-2p0--3--3-3--3-3---------------| 

e|--------------------------------------------------------| 
B|--------------------------------------------------------| 
G|--------------4--4-4--4-4---------------4-4-4-4-4-4-4-4-| 
D|-5--5-5--5-5--4--4-4--4-4--5--5-5--5-5--4-4-4-4-4-4-4-4-| 
A|-5--5-5--5-5--2--2-2--2-2--5--5-5--5-5--2-2-2-2-2-2-2-2-| 
E|-3--3-3--3-3---------------3--3-3--3-3------------------| 

e|--------------------------| 
B|--------------------------| 
G|--3--3-3--3-3-3--3--3-3---| 
D|--3--3-3--3-3-3--3--3-3---| 
A|--1--1-1--1-1-1--1--1-1---| 
E|--------------------------| 

Break 

e|----------------------------------------------------------------------------| 
B|----------------------------------------------------------------------------| 
G|-9--11-----------------------------7--9--11--9--------9--11-----------------| 
D|--------9-x-9--9-9-9--8-x-8--8-8-8---------------------------9--9-9-8-8-8-8-| 
A|-----------------------------------------------9--9-9-----------------------| 
E|----------------------------------------------------------------------------| 

e|-----------------------------------------------------------------------------| 
B|-----------------------------------------------------------------------------| 
G|----7--9--11-------------------------9--11------------------------------7--9-| 
D|-9------------7-7-7-7-7-7-7-7-----7---------9-x-9--9-9-9--8-x-8--8-8-8-------| 
A|-------------------------------9---------------------------------------------| 
E|-----------------------------------------------------------------------------| 
                                         
                                         heavy distortion  
e|---------------------------------------------------------------------------------| 
B|---------------------------------------------------------------------------------| 
G|-11--9---------9--11-------------------------------------------------------------| 
D|----------------------9--9-9-8-8-8-8--9--9-9--11-11-11-11--12-12-12-12--13-13-13-| 
A|--------9--9-9-------------------------------------------------------------------| 
E|---------------------------------------------------------------------------------| 


Chorus 3 

e|-------------------------------------------------------| 
B|-------------------------------------------------------| 
G|-3--3-3--3-3--7--7-7--7-7--3-3--3--3-3-----------------| 
D|-3--3-3--3-3--7--7-7--7-7--3-3--3--3-3--2--2-0---------| 
A|-1--1-1--1-1--5--5-5--5-5--1-1--1--1-1--2--2-0---------| 
E|-----------------------------------------------2p0-2p0-| 

"Don't look for me.." 
e|-------------------------------------------------------| 
B|-------------------------------------------------------| 
G|--------------4--4-4--4-4---------------4--4-4--4-4----| 
D|-5--5-5--5-5--4--4-4--4-4--5--5-5--5-5--4--4-4--4-4----| 
A|-5--5-5--5-5--2--2-2--2-2--5--5-5--5-5--2--2-2--2-2----| 
E|-3--3-3--3-3---------------3--3-3--3-3-----------------| 

e|--------------------------------------------------------| 
B|--------------------------------------------------------| 
G|--------------4-4-4-4-4-4-4-4--3--3-3--3-3--7--7-7--7-7-| 
D|-5--5-5--5-5--4-4-4-4-4-4-4-4--3--3-3--3-3--7--7-7--7-7-| 
A|-5--5-5--5-5--2-2-2-2-2-2-2-2--1--1-1--1-1--5--5-5--5-5-| 
E|-3--3-3--3-3--------------------------------------------| 
                              
                              "Don't look for me" 
e|-------------------------------------------------------| 
B|-------------------------------------------------------| 
G|-3-3--3-----------------------------------4--4-4--4-4--| 
D|-3-3--3------2--2-0----------5--5-5--5-5--4--4-4--4-4--| 
A|-1-1--1------2--2-0----------5--5-5--5-5--2--2-2--2-2--| 
E|---------12\--------2p0-2p0--3--3-3--3-3---------------| 

e|--------------------------------------------------------| 
B|--------------------------------------------------------| 
G|--------------4--4-4--4-4---------------4-4-4-4-4-4-4-4-| 
D|-5--5-5--5-5--4--4-4--4-4--5--5-5--5-5--4-4-4-4-4-4-4-4-| 
A|-5--5-5--5-5--2--2-2--2-2--5--5-5--5-5--2-2-2-2-2-2-2-2-| 
E|-3--3-3--3-3---------------3--3-3--3-3------------------| 

Outro 

"Please look for me.." 
e|-------------------------------------------------------| 
B|-------------------------------------------------------| 
G|--------------4--4-4--4-4---------------4--4-4--4-4----| 
D|-5--5-5--5-5--4--4-4--4-4--5--5-5--5-5--4--4-4--4-4----| 
A|-5--5-5--5-5--2--2-2--2-2--5--5-5--5-5--2--2-2--2-2----| 
E|-3--3-3--3-3---------------3--3-3--3-3-----------------| 

e|------------------------------------------------------------| 
B|------------------------------------------------------------| 
G|--------------4-4-4-4-4-4-4-4--3--3-3--3-3-3--3--3-3--3-3-3-| 
D|-5--5-5--5-5--4-4-4-4-4-4-4-4--3--3-3--3-3-3--3--3-3--3-3-3-| 
A|-5--5-5--5-5--2-2-2-2-2-2-2-2--1--1-1--1-1-1--1--1-1--1-1-1-| 
E|-3--3-3--3-3------------------------------------------------| 


e|---------------------------------| 
B|---------------------------------| 
G|--3--3-3--3-3-3--3--3-3-3-3-3--7-| 
D|--3--3-3--3-3-3--3--3-3-3-3-3--7-| 
A|--1--1-1--1-1-1--1--1-1-1-1-1--5-| 
E|---------------------------------| 

************************************ 

| x   Dead note 
| h   Hammer-on 
| p   Pull-off 
| /   Slide up 
| \   Slide down 

************************************ 
  

top 5 | the cribs
top punk rock
Outras músicas do artista letras do(a) The Cribs
Top cifras »Top artistas »
Petaxxon Comunicação Online
Cifras.com.br - Melhor e mais completo site de cifras e tablaturas do Brasil
Mais de 1 milhão de acordes de músicas cadastradas desde 2003
As informações contidas no nosso site são colaborações de seus usuários e podem conter erros, sendo assim, não nos responsabilizamos sobre nenhuma destas.
close
menos
mais
close
Cor dos acordes:

Cor da letra:

 

save
close
close
 
redimensionar