Cifras e Tablaturas
The Cult

The Cult

King Contrary Man

Cifras Cancelar Versão de Impressão
cifras

The Cult - King Contrary Man

fixar na tela  
Exibindo: vídeo-aula ver clipes redimensionar
  
E|------------------| 
B|------------------| 
G|------------------| 
D|------------------| 
A|------------------| 
E|-----5/10-103-----| 


Intro Riff  

Guitar 1 only 


E|------------------|------------------|------------------|------------------| 
B|------------------|------------------|------------------|------------------| 
G|------------------|------------------|------------------|------------------| 
D|-2----5-----------|-2----5-----------|-2----5-----------|-7---7-5--7--5----| 
A|-2----5-----------|-2----5-----------|-2----5-----------|-7---7-5--7--5----| 
E|-0----3----5-6-7--|-0----3----5-6-7--|-0----3----5-6-7--|-5---5-3--5--3----| 


Guitar 1 (And the rest of the band enter here) 


E|------------------|------------------|------------------|------------------| 
B|------------------|------------------|------------------|------------------| 
G|------------------|------------------|------------------|------------------| 
D|-2---5------------|-2---5------------|-2---5------------|-7---7-5--7--5----| 
A|-2---5------------|-2---5------------|-2---5------------|-7---7-5--7--5----| 
E|-0---3---5-6-7----|-0---3---5-6-7----|-0---3---5-6-7----|-5---5-3--5--3----| 
                   |                  |                  |                  | 
Guitar 2           |                  |                  |                  | 
                   |                  |                  |                  | 
E|------------------|------------------|------------------|------------------| 
B|------------------|------------------|------------------|------------------| 
G|------------------|------------------|------------------|------------------| 
D|-2-------2--------|-2-------2--------|-2-------2--------|-7----------------| 
A|-2-------2--------|-2-------2--------|-2-------2--------|-7----------------| 
E|-0-------0--------|-0-------0--------|-0-------0--------|-5----------------| 

                                                           Yeah, yeah, yeah, 
                                                                         ye.. 
Guitar 1 


E|------------------|------------------|------------------|------------------| 
B|------------------|------------------|------------------|------------------| 
G|------------------|------------------|------------------|------------------| 
D|-2---2-5----------|-2---2-5----------|-2---2-5----------|-7---7-5--7--5----| 
A|-2---2-5----------|-2---2-5----------|-2---2-5----------|-7---7-5--7--5----| 
E|-0---0-3---5-6-7--|-0---0-3---5-6-7--|-0---0-3---5-6-7--|-5---5-3--5--3----| 

 ..................................ah   yeah 
Guitar 1 


E|------------------|------------------|------------------|------------------| 
B|------------------|------------------|------------------|------------------| 
G|------------------|------------------|------------------|------------------| 
D|-2---2-5----------|-2---2-5----------|-2---2-5----------|-7---7-5--7--5----| 
A|-2---2-5----------|-2---2-5----------|-2---2-5----------|-7---7-5--7--5----| 
E|-0---0-3---5-6-7--|-0---0-3---5-6-7--|-0---0-3---5-6-7--|-5---5-3--5--3----| 


verse 1 Guitar 1 

     E  E               E  E               E  E               A   A G  A  G 
E|------------------|------------------|------------------|------------------| 
B|------------------|------------------|------------------|------------------| 
G|------------------|------------------|------------------|------------------| 
D|-2--2-------------|-2--2-------------|-2--2-------------|-7---7-5--7--5----| 
A|-2--2-------------|-2--2-------------|-2--2-------------|-7---7-5--7--5----| 
E|-0--0-------------|-0--0-------------|-0--0-------------|-5---5-3--5--3----| 

    I saw the devil    The contrary man   I saw the devil  
                                                      down a long long road 


     E  E               E  E               E  E               A   A G  A  G 
E|------------------|------------------|------------------|------------------| 
B|------------------|------------------|------------------|------------------| 
G|------------------|------------------|------------------|------------------| 
D|-2--2-------------|-2--2-------------|-2--2-------------|-7---7-5--7--5----| 
A|-2--2-------------|-2--2-------------|-2--2-------------|-7---7-5--7--5----| 
E|-0--0-------------|-0--0-------------|-0--0-------------|-5---5-3--5--3----| 

    He said to me boy  He said to me boy  He said to me boy I want your soul 


     E  E G             E  E G             E  E G             A   A G  A  G 
E|------------------|------------------|------------------|------------------| 
B|------------------|------------------|------------------|------------------| 
G|------------------|------------------|------------------|------------------| 
D|-2--2-5-----------|-2--2-5-----------|-2-2--5-----------|-7---7-5--7--5----| 
A|-2--2-5-----------|-2--2-5-----------|-2-2--5-----------|-7---7-5--7--5----| 
E|-0--0-3----5-6-7--|-0--0-3----5-6-7--|-0-0--3----5-6-7--|-5---5-3--5--3----| 

 I said no      I said no       I said no        You can't take my soul 
                                                                  

     E  E G             E  E G             E  E G             A   A G  A  G 
E|------------------|------------------|------------------|------------------| 
B|------------------|------------------|------------------|------------------| 
G|------------------|------------------|------------------|------------------| 
D|-2--2-5-----------|-2--2-5-----------|-2-2--5-----------|-7---7-5--7--5----| 
A|-2--2-5-----------|-2--2-5-----------|-2-2--5-----------|-7---7-5--7--5----| 
E|-0--0-3----5-6-7--|-0--0-3----5-6-7--|-0-0--3----5-6-7--|-5---5-3--5--3----| 

 No             I said no         I said no no     You can't take my soul 
                                                                  
verse 2 Guitar 1 


     E  E               E  E               E  E               A   A G  A  G 
E|------------------|------------------|------------------|------------------| 
B|------------------|------------------|------------------|------------------| 
G|------------------|------------------|------------------|------------------| 
D|-2--2-------------|-2--2-------------|-2--2-------------|-7---7-5--7--5----| 
A|-2--2-------------|-2--2-------------|-2--2-------------|-7---7-5--7--5----| 
E|-0--0-------------|-0--0-------------|-0--0-------------|-5---5-3--5--3----| 

    I took a while   Thought about it   Down at the crossroads tempting fate  
   

     E  E               E  E               E  E               A   A G  A  G 
E|------------------|------------------|------------------|------------------| 
B|------------------|------------------|------------------|------------------| 
G|------------------|------------------|------------------|------------------| 
D|-2--2-------------|-2--2-------------|-2--2-------------|-7---7-5--7--5----| 
A|-2--2-------------|-2--2-------------|-2--2-------------|-7---7-5--7--5----| 
E|-0--0-------------|-0--0-------------|-0--0-------------|-5---5-3--5--3----| 

    I took a while   Thought about it   Down at the crossroads tempting fate  
   

     E  E G             E  E G             E  E G             A   A G  A  G 
E|------------------|------------------|------------------|------------------| 
B|------------------|------------------|------------------|------------------| 
G|------------------|------------------|------------------|------------------| 
D|-2--2-5-----------|-2--2-5-----------|-2--2-5-----------|-7---7-5--7--5----| 
A|-2--2-5-----------|-2--2-5-----------|-2--2-5-----------|-7---7-5--7--5----| 
E|-0--0-3----5-6-7--|-0--0-3----5-6-7--|-0--0-3----5-6-7--|-5---5-3--5--3----| 

     Said Yeah         Yeah                Yeah   you can take my soul 
   

     E  E G             E  E G             E E  G             A   A G  A  G 
E|------------------|------------------|------------------|------------------| 
B|------------------|------------------|------------------|------------------| 
G|------------------|------------------|------------------|------------------| 
D|-2--2-5-----------|-2--2-5-----------|-2-2--5-----------|-7---7-5--7--5----| 
A|-2--2-5-----------|-2--2-5-----------|-2-2--5-----------|-7---7-5--7--5----| 
E|-0--0-3----5-6-7--|-0--0-3----5-6-7--|-0-0--3----5-6-7--|-5---5-3--5--3----| 

     Yeah                Yeah                Yeah   you can take my soul 
   

     A   A G  A  G      A   A G  A  G      E                   E 
E|------------------|------------------|------------------|------------------| 
B|------------------|------------------|------------------|------------------| 
G|------------------|------------------|------------------|------------------| 
D|-7---7-5--7--5----|-7---7-5--7--5----|-2----------------|-(2)--------------| 
A|-7---7-5--7--5----|-7---7-5--7--5----|-2----------------|-(2)--------------| 
E|-5---5-3--5--3----|-5---5-3--5--3----|-0----------------|-(0)--------------| 

   Take my soul       I want it all     yeah 

Solo Guitar 1 


E|------------------|------------------|------------------|------------------| 
B|------------------|------------------|------------------|------------------| 
G|------------------|------------------|------------------|------------------| 
D|------------------|------------------|------------------|------------------| 
A|------------------|------------------|------------------|------------------| 
E|------------------|------------------|------------------|------------------| 
                   |                  |                  |                  | 
Guitar 2           |                  |                  |                  | 


     E                | G  E  G  E  A  B | B                | B                | 
E|------------------|------------------|------------------|------------------| 
B|------------------|------------------|------------------|------------------| 
G|------------------|-------------2--4-|-4-4-4-4--4-4-4-4-|-4-4-4-4--4-4-4-4-| 
D|-2----------------|-5--2--5--2--2--4-|-4-4-4-4--4-4-4-4-|-4-4-4-4--4-4-4-4-| 
A|-2----------------|-5--2--5--2--0--2-|-2-2-2-2--2-2-2-2-|-2-2-2-2--2-2-2-2-| 
E|-0----------------|-3--0--3--0-------|------------------|------------------| 



Guitar 1 


E|------------------|------------------|------------------|------------------| 
B|------------------|------------------|------------------|------------------| 
G|------------------|------------------|------------------|------------------| 
D|------------------|------------------|------------------|------------------| 
A|------------------|------------------|------------------|------------------| 
E|------------------|------------------|------------------|------------------| 
                   |                  |                  |                  | 
Guitar 2           |                  |                  |                  | 


     B                | G  E  G  E  A  B | B                | B                | 
E|------------------|------------------|------------------|------------------| 
B|------------------|------------------|------------------|------------------| 
G|-4-4-4-4--4-4-4-4-|-------------2--4-|-4-4-4-4--4-4-4-4-|-4-4-4-4--4-4-4-4-| 
D|-4-4-4-4--4-4-4-4-|-5--2--5--2--2--4-|-4-4-4-4--4-4-4-4-|-4-4-4-4--4-4-4-4-| 
A|-2-2-2-2--2-2-2-2-|-5--2--5--2--0--2-|-2-2-2-2--2-2-2-2-|-2-2-2-2--2-2-2-2-| 
E|------------------|-3--0--3--0-------|------------------|------------------| 



Guitar 1 


E|------------------|------------------|------------------|------------------| 
B|------------------|------------------|------------------|------------------| 
G|------------------|------------------|------------------|------------------| 
D|------------------|------------------|------------------|------------------| 
A|------------------|------------------|------------------|------------------| 
E|------------------|------------------|------------------|------------------| 
                   |                  |                  |                  | 
Guitar 2           |                  |                  |                  | 


     B                | D  B  D  B  Eb E | E                | E                | 
E|------------------|------------------|------------------|------------------| 
B|------------------|------------------|------------------|------------------| 
G|-4-4-4-4--4-4-4-4-|-7--4--7--4--8--9-|-9-9-9-9--9-9-9-9-|-9-9-9-9--9-9-9-9-| 
D|-4-4-4-4--4-4-4-4-|-7--4--7--4--8--9-|-9-9-9-9--9-9-9-9-|-9-9-9-9--9-9-9-9-| 
A|-2-2-2-2--2-2-2-2-|-5--2--5--2--6--7-|-7-7-7-7--7-7-7-7-|-7-7-7-7--7-7-7-7-| 
E|------------------|------------------|------------------|------------------| 



Guitar 1 


E|------------------|------------------|------------------|------------------| 
B|------------------|------------------|------------------|------------------| 
G|------------------|------------------|------------------|------------------| 
D|------------------|------------------|------------------|------------------| 
A|------------------|------------------|------------------|------------------| 
E|------------------|------------------|------------------|------------------| 
                   |                  |                  |                  | 
Guitar 2           |                  |                  |                  | 


     E                | G  E  G  E  A  B | B                | B                | 
E|------------------|------------------|------------------|------------------| 
B|------------------|------------------|------------------|------------------| 
G|-9-9-9-9--9-9-9-9-|-------------2--4-|-4-4-4-4--4-4-4-4-|-4-4-4-4--4-4-4-4-| 
D|-9-9-9-9--9-9-9-9-|-5--2--5--2--2--4-|-4-4-4-4--4-4-4-4-|-4-4-4-4--4-4-4-4-| 
A|-7-7-7-7--7-7-7-7-|-5--2--5--2--0--2-|-2-2-2-2--2-2-2-2-|-2-2-2-2--2-2-2-2-| 
E|------------------|-3--0--3--0-------|------------------|------------------| 



Guitar 1 


E|------------------|------------------|------------------|------------------| 
B|------------------|------------------|------------------|------------------| 
G|------------------|------------------|------------------|------------------| 
D|------------------|------------------|------------------|------------------| 
A|------------------|------------------|------------------|------------------| 
E|------------------|------------------|------------------|------------------| 
                   |                  |                  |                  | 
Guitar 2           |                  |                  |                  | 


     B                | A  G  A  G  F# A | E                | E E              | 
E|------------------|------------------|------------------|------------------| 
B|------------------|------------------|------------------|------------------| 
G|-4-4-4-4--4-4-4-4-|------------------|------------------|------------------| 
D|-4-4-4-4--4-4-4-4-|-7--5--7--5--4--2-|-2----------------|-2-2--------------| 
A|-2-2-2-2--2-2-2-2-|-7--5--7--5--4--2-|-2----------------|-2-2--------------| 
E|------------------|-5--3--5--3--2--0-|-0----------------|-0-0--------------| 



Guitar 1 


E|------------------|------------------|------------------|------------------| 
B|------------------|------------------|------------------|------------------| 
G|------------------|------------------|------------------|------------------| 
D|------------------|------------------|------------------|------------------| 
A|------------------|------------------|------------------|------------------| 
E|------------------|------------------|------------------|------------------| 
                   |                  |                  |                  | 
Guitar 2           |                  |                  |                  | 


     E E              | A   A G  A  G    | E E              | E E              | 
E|------------------|------------------|------------------|------------------| 
B|------------------|------------------|------------------|------------------| 
G|------------------|------------------|------------------|------------------| 
D|-2-2--------------|-7---7-5--7--5----|-2-2--------------|-2-2--------------| 
A|-2-2--------------|-7---7-5--7--5----|-2-2--------------|-2-2--------------| 
E|-0-0--------------|-5---5-3--5--3----|-0-0--------------|-0-0--------------| 



Guitar 1 


E|------------------|------------------|------------------|------------------| 
B|------------------|------------------|------------------|------------------| 
G|------------------|------------------|------------------|------------------| 
D|------------------|------------------|------------------|------------------| 
A|------------------|------------------|------------------|------------------| 
E|------------------|------------------|------------------|------------------| 
                   |                  |                  |                  | 
Guitar 2           |                  |                  |                  | 


     E E              | A   A G  A  G    | E E              | E E              | 
E|------------------|------------------|------------------|------------------| 
B|------------------|------------------|------------------|------------------| 
G|------------------|------------------|------------------|------------------| 
D|-2-2--------------|-7---7-5--7--5----|-2-2--------------|-2-2--------------| 
A|-2-2--------------|-7---7-5--7--5----|-2-2--------------|-2-2--------------| 
E|-0-0--------------|-5---5-3--5--3----|-0-0--------------|-0-0--------------| 



Guitar 1 


E|------------------|------------------|------------------|------------------| 
B|------------------|------------------|------------------|------------------| 
G|------------------|------------------|------------------|------------------| 
D|------------------|------------------|------------------|------------------| 
A|------------------|------------------|------------------|------------------| 
E|------------------|------------------|------------------|------------------| 
                   |                  |                  |                  | 
Guitar 2           |                  |                  |                  | 


     E E              | A   A G  A  G    | E       E        | E       E        | 
E|------------------|------------------|------------------|------------------| 
B|------------------|------------------|------------------|------------------| 
G|------------------|------------------|------------------|------------------| 
D|-2-2--------------|-7---7-5--7--5----|-2-------2--------|-2-------2--------| 
A|-2-2--------------|-7---7-5--7--5----|-2-------2--------|-2-------2--------| 
E|-0-0--------------|-5---5-3--5--3----|-0-------0--------|-0-------0--------| 



Guitar 1 

                                           E E G              E E G 
E|------------------|------------------|------------------|------------------| 
B|------------------|------------------|------------------|------------------| 
G|------------------|------------------|------------------|------------------| 
D|------------------|------------------|-2-2-5------------|-2-2-5------------| 
A|------------------|------------------|-2-2-5------------|-2-2-5------------| 
E|------------------|------------------|-0-0-3---5-6-7----|-0-0-3---5-6-7----| 
                   |                  |                  |                  | 
Guitar 2           |                  |                  |                  | 
  E       E        | E       E        | E       E        | E       E        | 
E|------------------|------------------|------------------|------------------| 
B|------------------|------------------|------------------|------------------| 
G|------------------|------------------|------------------|------------------| 
D|-2-------2--------|-2-------2--------|-2-------2--------|-2-------2--------| 
A|-2-------2--------|-2-------2--------|-2-------2--------|-2-------2--------| 
E|-0-------0--------|-0-------0--------|-0-------0--------|-0-------0--------| 



Guitar 1 

     E  E G             A                   A                  A 
E|------------------|------------------|------------------|------------------| 
B|------------------|------------------|------------------|------------------| 
G|------------------|------------------|------------------|------------------| 
D|-2-2-5------------|-7----------------|-(7)--------------|-(7)--------------| 
A|-2-2-5------------|-7----------------|-(7)--------------|-(7)--------------| 
E|-0-0-3---5-6-7----|-5----------------|-(5)--------------|-(5)--------------| 
                   |                  |                  |                  | 
Guitar 2           |                  |                  |                  | 
  E       E        | A                |  A               |  A                | 
E|------------------|------------------|------------------|------------------| 
B|------------------|------------------|------------------|------------------| 
G|------------------|------------------|------------------|------------------| 
D|-2-------2--------|-7----------------|-(7)--------------|-(7)--------------| 
A|-2-------2--------|-7----------------|-(7)--------------|-(7)--------------| 
E|-0-------0--------|-5----------------|-(5)--------------|-(5)--------------| 


Guitar 1 

   A               |    
E|------------------| 
B|------------------| 
G|------------------| 
D|-(7)--------------| 
A|-(7)--------------| 
E|-(5)--------------| 
                   |                                                       
Guitar 2           |                                                       
   A               |                                      
E|------------------| 
B|------------------| 
G|------------------| 
D|-(7)--------------| 
A|-(7)--------------| 
E|-(5)--------------| 



verse 3 Guitar 1 


     E  E G             E  E G             E  E G             A   A G  A  G 
E|------------------|------------------|------------------|------------------| 
B|------------------|------------------|------------------|------------------| 
G|------------------|------------------|------------------|------------------| 
D|-2--2-5-----------|-2--2-5-----------|-2--2-5-----------|-7---7-5--7--5----| 
A|-2--2-5-----------|-2--2-5-----------|-2--2-5-----------|-7---7-5--7--5----| 
E|-0--0-3----5-6-7--|-0--0-3----5-6-7--|-0--0-3----5-6-7--|-5---5-3--5--3----| 

   Zany antics of a   beat generation    in their wild     search for kicks 


     E  E G             E  E G             E  E G             A   A G  A  G 
E|------------------|------------------|------------------|------------------| 
B|------------------|------------------|------------------|------------------| 
G|------------------|------------------|------------------|------------------| 
D|-2--2-5-----------|-2--2-5-----------|-2--2-5-----------|-7---7-5--7--5----| 
A|-2--2-5-----------|-2--2-5-----------|-2--2-5-----------|-7---7-5--7--5----| 
E|-0--0-3----5-6-7--|-0--0-3----5-6-7--|-0--0-3----5-6-7--|-5---5-3--5--3----| 

   Fighting drinking scorning convention making wild love  making wild love 


     E  E G             E  E G             E  E G             A   A G  A  G 
E|------------------|------------------|------------------|------------------| 
B|------------------|------------------|------------------|------------------| 
G|------------------|------------------|------------------|------------------| 
D|-2--2-5-----------|-2--2-5-----------|-2--2-5-----------|-7---7-5--7--5----| 
A|-2--2-5-----------|-2--2-5-----------|-2--2-5-----------|-7---7-5--7--5----| 
E|-0--0-3----5-6-7--|-0--0-3----5-6-7--|-0--0-3----5-6-7--|-5---5-3--5--3----| 

    I saw the devil    The contrary man   I saw the devil  
                                                      down a long long road 


     E  E G             E  E G             E  E G             A   A G  A  G 
E|------------------|------------------|------------------|------------------| 
B|------------------|------------------|------------------|------------------| 
G|------------------|------------------|------------------|------------------| 
D|-2--2-5-----------|-2--2-5-----------|-2--2-5-----------|-7---7-5--7--5----| 
A|-2--2-5-----------|-2--2-5-----------|-2--2-5-----------|-7---7-5--7--5----| 
E|-0--0-3----5-6-7--|-0--0-3----5-6-7--|-0--0-3----5-6-7--|-5---5-3--5--3----| 

    He said to me boy  He said to me boy  He said to me boy I want your soul 


     E  E G             E  E G             E  E G             A   A G  A  G 
E|------------------|------------------|------------------|------------------| 
B|------------------|------------------|------------------|------------------| 
G|------------------|------------------|------------------|------------------| 
D|-2--2-5-----------|-2--2-5-----------|-2--2-5-----------|-7---7-5--7--5----| 
A|-2--2-5-----------|-2--2-5-----------|-2--2-5-----------|-7---7-5--7--5----| 
E|-0--0-3----5-6-7--|-0--0-3----5-6-7--|-0--0-3----5-6-7--|-5---5-3--5--3----| 

   I said yeah,        I said yeah,       I said yeah, yeah, yeah, yeah  
   

     E  E G             E  E G             E  E G             A   A G  A  G 
E|------------------|------------------|------------------|------------------| 
B|------------------|------------------|------------------|------------------| 
G|------------------|------------------|------------------|------------------| 
D|-2--2-5-----------|-2--2-5-----------|-2--2-5-----------|-7---7-5--7--5----| 
A|-2--2-5-----------|-2--2-5-----------|-2--2-5-----------|-7---7-5--7--5----| 
E|-0--0-3----5-6-7--|-0--0-3----5-6-7--|-0--0-3----5-6-7--|-5---5-3--5--3----| 

   yeah,    yeah,    yeah,     yeah,     yeah,    yeah,    yeah,     



E|------------------|------------------|------------------|------------------| 
B|------------------|------------------|------------------|------------------| 
G|------------------|------------------|------------------|------------------| 
D|-7---7-5--7--5----|-7---7-5--7--5----|-2----------------|------------------| 
A|-7---7-5--7--5----|-7---7-5--7--5----|-2----------------|------------------| 
E|-5---5-3--5--3----|-5---5-3--5--3----|-0----------------|------------------| 

   I want it all      I want it all     yeah 
  

cifra enviadasem correções
enviado porenviada por:terr_schmitz
top 5 | the cult
top rock'n roll
Outras músicas do artista letras do(a) The Cult
Top cifras »Top artistas »
Petaxxon Comunicação Online
Cifras.com.br - Melhor e mais completo site de cifras e tablaturas do Brasil
Mais de 1 milhão de acordes de músicas cadastradas desde 2003
As informações contidas no nosso site são colaborações de seus usuários e podem conter erros, sendo assim, não nos responsabilizamos sobre nenhuma destas.
close
menos
mais
close
Cor dos acordes:

Cor da letra:

 

save
close
close
 
redimensionar