Cifras e Tablaturas
The Darkness

The Darkness

Rack Of Glam

Cifras Cancelar Versão de Impressão

The Darkness - Rack Of Glam

Tom:

  			
Intro 
                                          only play this ending the first time 
e|---------------------------------------|-------------------| 
B|---------------------------------------|------3------------| 
G|---------------------------------------|--2s4---4p2p0---0--| 
D|-9--9-7-9-7---2---2-2------------------|--------------2-0--| 
A|-7--7-5-7-5---0---0-0--------------2---|-------------------|  
E|-----------------------5-4-3~-5br3-0---|-------------------| 

verse 1 
e|--------------------------------------------------|-------------------------------------------| 
B|--------------------------------------------------|-------------------------------------------| 
G|--------------------------------------------------|-------------------------------------------| 
D|---------------------------------------2----------|---------------------------------------2---| 
A|-2--4--2--4-2--2--4--2--4--2--4--2-----0----------|-2--4--2--4-2--2--4--2--5-4-2--4--2----0---| 
E|-0--0--0--0-0--0--0--0--0--0--0--0--3-----3-5-3~--|-0--0--0--0-0--0--0--0--0-0-0--0--0--3-----| 

Pre-Chorus 1 
e|--------------------------------------------------------------------------|---| 
B|--------------------------------------------------------------------------|---| 
G|-4-4-4-4-4-4-4-4-4-4-4-4-4-4-4-4-7-7-7-7-7-7-7-7-7-7-7-7-7-7-7-7----------|x2-| 
D|-4-4-4-4-4-4-4-4-4-4-4-4-4-4-4-4-7-7-7-7-7-7-7-7-7-7-7-7-7-7-7-7----------|---| 
A|-2-2-2-2-2-2-2-2-2-2-2-2-2-2-2-2-5-5-5-5-5-5-5-5-5-5-5-5-5-5-5-5----------|---| 
E|--------------------------------------------------------------------------|---| 

Chorus 
e|--------------------------------------|--------------------|-------------------------| 
B|--------------------------------------|-------3------------|-------------------------| 
G|--------------------------------------|---2s4---4p2p0---0--|-------------------------| 
D|-9--9-7-9-7---2---2-2-----------------|---------------2-0--|-----------------------2-| 
A|-7--7-5-7-5---0---0-0-----------------|-2------------------|-5------5------5-------0-| 
E|-----------------------5-4-3~-5br3----|-0------------------|-3-5br3-3-5br3-3-5br3----| 

 Post Chorus (only played after the first Chorus) 
e|--------------------------------------------| 
B|--------------------------------------------| 
G|--------------------------------------------| 
D|-------------------------2------------------| 
A|-2---2---2---2---2---5---0------------------| 
E|-0---0---0---0---0---3----------------------| 

verse 2  
e|---------------------------------------------------------|-----------------| 
B|---------------------------------------------------------|-----------------| 
G|---------------------------------------------------------|-----x2----------| 
D|------------------------------------------------------2--|-----------------| 
A|--2---2---2---2---2---2---2---2---2---2---2---2---5---0--|-----------------| 
E|--0---0---0---0---0---0---0---0---0---0---0---0---3------|-----------------| 

Pre Chorus 2 
e|---------------------------------------------------------------------------|-| 
B|---------------------------------------------------------------------------|-| 
G|-----4---2-4-----4---2-4-----4-4-----7---5-7-----7---5-7-----7-7-----------|-| 
D|-----4---2-4-----4---2-4-----4-4-----7---5-7-----7---5-7-----7-7-----------|-| 
A|-2-2-2-2-2-2-2-2-2-2-2-2-2-2-2-2-5-5-5-5-5-5-5-5-5-5-5-5-5-5-5-5-4-3-2-----|-| 
E|---------------------------------------------------------------------------|-| 
   * *   *     * *   *     * *     * *   *     * *   *     * *     * * * 
e|----------------------------------------------------------------------|-| 
B|----------------------------------------------------------------------|-| 
G|-----4---2-4-----4---2-4-----4-4-7-7-7-7-7-7-7-7-7-7-7-7-7-7-7-7------|-| 
D|-----4---2-4-----4---2-4-----4-4-7-7-7-7-7-7-7-7-7-7-7-7-7-7-7-7------|-| 
A|-2-2-2-2-2-2-2-2-2-2-2-2-2-2-2-2-5-5-5-5-5-5-5-5-5-5-5-5-5-5-5-5------|-| 
E|----------------------------------------------------------------------|-| 
   * *   *     * *   *     * *     

Solo Rhythm  
e|---------------------------------------------|---|------------------------------------------------------| 
B|---------------------------------------------|---|------------------------------------------------------| 
G|---------------------------------------------|---|------------------------------------------------------| 
D|--------------------------------7-7--9-9-----|x2-|------------------------------------------------------|x2 
A|----7br5------7br5------7br5----5-5--7-7-----|---|---------------2-------------2---------------5-5--7-7-| 
E|-7~------7-7~------7-7~------7---------------|---|-0-0-5b--5-3-0-0-0-5b--5-3-0-0-0-5b--5-3-0---3-3--5-5-| 


For the post solo riff play 
lightly palm muted 
      e|---| 
      B|---| 
      G|-9-|   
      D|-9-| 
      A|-7-| 
      E|---| 
 
    	
fixar
fixar inscrever-se

enviado porenviado por: paulantunes
cifra enviadaCorrigida por: sem correções
logo top cifrasComente
ico música do artistaMúsicas deste artista
ico curtiuCurtiu?
ico destaqueDestaque
Petaxxon Comunicação Online

Cifras.com.br - Melhor e mais completo site de cifras e tablaturas do Brasil Mais de 1 milhão de acordes de músicas cadastradas desde 2003
As informações contidas no nosso site são colaborações de seus usuários e podem conter erros, sendo assim, não nos responsabilizamos sobre nenhuma destas.

close
menos
mais
close
Cor dos acordes:

Cor da letra:

close
Alinhar acordes a direita Alinhar acordes a esquerda Alinhar acordes em baixo Alinhar acordes no topo
close
  Mostrar todos os acordes Esconder acordes muito fáceis Esconder acordes fáceis Esconder acordes intermediários
redimensionar
glossário