Cifras e Tablaturas
The Devil Wears Prada

The Devil Wears Prada

The Condition

Cifras Cancelar Versão de Impressão
cifras

The Devil Wears Prada - The Condition

fixar na tela  
Exibindo: vídeo-aula ver clipes redimensionar

Tom:

  
Tuning: Db Ab Db Gb Bb Eb 

Riff 1, Guitar w. Delay & Synth - 00:00 - 00:24 - x2 
- -----------------------------------------------------5----------- 
- ---------5br---------------------5br---------8------------------- 
- ----------------------------------------------------------------- 
- -----7-----------------------7----------------------------------- 
- -5-----------------------5--------------------------------------- 
- ----------------------------------------------------------------- 
- 
- ----------------------------------------------------------------- 
- -------------6-------5-----------------------8-------6----------- 
- ---------7-------------------------------7----------------------- 
- ----------------------------------------------------------------- 
- -----0-------------------------------0--------------------------- 
- -0-------------------------------0------------------------------- 


- -5--------------------------------------------------------------- 
- -------------6--------------------------------------------------- 
- ----------------------------------------------------------------- 
- ----------------------------------------------------------------- 
- ----------------------------------------------------------------- 
- ----------------------------------------------------------------- 
- 
- ---------------------------------------------5-------6----------- 
- ---------------------8------------------------------------------- 
- ---------7---10--------------------------7----------------------- 
- -----10------------------------------8--------------------------- 
- -8-------------------------------5------------------------------- 
- ----------------------------------------------------------------- 


Riff 2, Guitar 1 & 2 - 00:24 - 00:35 
- ----------------------------------------------------------------- 
- ----------------------------------------------------------------- 
- -3-3-----------------------------3-3----------------------------- 
- -x-x---6---6---6-6---6---6-6-6---x-x---6---6---6-6---6---6-6-6--- 
- -1-1-0-5---5---5-5---5---5-5-5---1-1-0-5---5---5-5---5---5-5-5--- 
- -0-0-0-6---6---6-6---6---6-6-6---0-0-0-6---6---6-6---6---6-6-6--- 
PM     .                               .  
- 
- ----------------------------------------------------------------- 
- ----------------------------------------------------------------- 
- -3-3-----------------------------3-3----------------------------- 
- -x-x---6---6---6-6---6---6-6-6---x-x---6---6---6-6---6---6-6-6--- 
- -1-1-0-5---5---5-5---5---5-5-5---1-1-0-5---5---5-5---5---5-5-5--- 
- -0-0-0-6---6---6-6---6---6-6-6---0-0-0-6---6---6-6---6---6-6-6--- 
PM     .                               .  



- ----------------------------------------------------------------- 
- ----------------------------------------------------------------- 
- -------3---3---3-3---3---3-3-3----------------------------------- 
- -------x---x---x-x---x---x-x-x---------6---6---6-6---6----------- 
- -5\3-0-1---1---1-1---1---1-1-1---1/3-0-5---5---5-5---5----------- 
- -0---0-0---0---0-0---0---0-0-0---0---0-6---6---6-6---6---6/7-7--- 
PM     .                               . 
- 
- ----------------------------------------------------------------- 
- ----------------------------------------------------------------- 
- -------3---3---3-3---3---3-3-3----------------------------------- 
- -------x---x---x-x---x---x-x-x---------6---6---6-6---6----------- 
- -5\3-0-1---1---1-1---1---1-1-1---1/3-0-5---5---5-5---5----------- 
- -0---0-0---0---0-0---0---0-0-0---0---0-6---6---6-6---6---0-0-0--- 
PM     .                               . 


Riff 3 - 00:35 - 00:50 
- ----------------------------------------------------------------------------------------- 
- ----------------------------------------------------------------------------------------- 
- -3--------------------------------------------------------------------------------------- 
- -x-----0---------------------------------6----------------------------------------------- 
- -1---0-0---0-0-0-0-0-0-0-0-0-0-0-0-0-0-0-5-0-0-0-0-0-0-0-3p0---5p3---------1-1-1-111-111- 
- -0---0-0---0-0-0-0-0-0-0-0-0-0-0-0-0-0-0-6-0-0-0-0-0-0-0-----0-----0-3v----1-1-1-111-111- 
PM     .     .............................   .............     .     .       ............. 

- --------------------------------------------------------------------------------- 
- --------------------------------------------------------------------------------- 
- --------------------------------------------------------------------------------- 
- -6-------------------------------6----------------------------------------------- 
- -5-0-0-0-0-0-0-0-0-0-0-0-0-0-0-0-5-0-0-0-0-0-0-0-3p0---5p3---------1-1-1-1-1-111- 
- -6-0-0-0-0-0-0-0-0-0-0-0-0-0-0-0-6-0-0-0-0-0-0-0-----0-----0-3v----1-1-1-1-1-111- 
PM   .............................   .............     .     .       ............. 

Riff 4 - 00:50 - 01:08 
- ----------------------------------------------------------------- 
- ----------------------------------------------------------------- 
- ----------------------------------------------------------------- 
- -7-----7-----7---7-----7-----7---7-----7-----7------------------- 
- -5-0-0-5-0-0-5---5-0-0-5-0-0-5---5-0-0-5-0-0-5---3p0---5p3------- 
- -0-0-0-0-0-0-0---0-0-0-0-0-0-0---0-0-0-0-0-0-0-------0-----0-3p0- 
PM   ...   ...       ...   ...       ...   ...         .     . 

- ----------------------------------------------------------------- 
- ----------------------------------------------------------------- 
- ----------------------------------------------------------------- 
- -7-----7-----7---7-----7-----7---6-----6-----6-6-6-6-6-6-6-6-6-6- 
- -5-0-0-5-0-0-5---5-0-0-5-0-0-5---5-5-5-5-5-5-5-5-5-5-5-5-5-5-5-5- 
- -0-0-0-0-0-0-0---0-0-0-0-0-0-0---6-6-6-6-6-6-6-6-6-6-6-6-6-6-6-6- 
PM   ...   ...       ...   ...       ...   ... 

- ----------------------------------------------------------------- 
- ----------------------------------------------------------------- 
- ----------------------------------------------------------------- 
- -3-3-3-3-3-3-3-3-3-3-3-3-3-3-3-3--------------------------------- 
- -1-1-1-1-1-1-1-1-1-1-1-1-1-1-1-1-------8-----------8------------- 
- -3-3-3-3-3-3-3-3-3-3-3-3-3-3-3-3-0h3/7---8\--3h3/7---8\--2-2-2-2- 

Riff 5, Guitar 1 & 2 - 01:08 - 01:30 
- ----------------------------------------------------------------- 
- ----------------------------------------------------------------- 
- ----------------------------------------------------------------- 
- -0---------------7---------------0--0--0-----2--2--2-----2---2--- 
- -0---------------5---------------0--0--0-----3--3--3-----3---3--- 
- -0---------------0---------------0--0--0-----2--2--2-----2---2--- 
- 
- ----------------------------------------------------------------- 
- -6--------------------------------------------------------------- 
- ---------------------------------------------------------5------- 
- -------7---------7---------------5---------------3--------------- 
- -------------5-------------------------5-----7------------------- 
- ----------------------------------------------------------------- 


- ----------------------------------------------------------------- 
- ----------------------------------------------------------------- 
- ----------------------------------------------------------------- 
- -3-----3-----3---3-----3-----3---3-----3-----3------------------- 
- -1-----1-----1---1-----1-----1---1-----1-----1------------------- 
- -3-----3-----3---3-----3-----3---3-----3-----3---0h3/7---8\------ 
- 
- ----------------------------------------------------------------- 
- ----------------------------------------------------------------- 
- ----------------------------------------------------------------- 
- -7-7-7-5-5-5-0-0-7-7-7-5-5-5-0-0-7-7-7-5-5-5-0-0----------------- 
- ----------------------------------------------------------------- 
- ----------------------------------------------------------------- 


- ----------------------------------------------------------------- 
- ----------------------------------------------------------------- 
- ----------------------------------------------------------------- 
- -0---------------7---------------0--------------7---------------- 
- -0---------------5---------------0--------------5---------------- 
- -0---------------0---------------0--------------0---------------- 
- 
- ----------------------------------------------------------------- 
- -6--------------------------------------------------------------- 
- ---------------------------------------------------------5------- 
- -------7---------7---------------5---------------3--------------- 
- -------------5-------------------------5-----7------------------- 
- ----------------------------------------------------------------- 


- ----------------------------------------------------------------- 
- ----------------------------------------------------------------- 
- ----------------------------------------------------------------- 
- -3-----3-----3---3-----3-----3---7------------------------------- 
- -1-----1-----1---1-----1-----1---4------------------------------- 
- -3-----3-----3---3-----3-----3---7------------------------------- 
- 
- ----------------------------------------------------------------- 
- ----------------------------------------------------------------- 
- ----------------------------------------------------------------- 
- -7-7-7-5-5-5-0-0-7-7-7-5-5-5-0-0--------------------------------- 
- ----------------------------------------------------------------- 
- ----------------------------------------------------------------- 


Riff 6a - 01:30 - 02:08 
- ----------------------------------------------------------------- 
- ----------------------------------------------------------------- 
- ----------------------------------------------------------------- 
- ----------------------------------------------------------------- 
- -0-0-0-0-0-0-0-0-0-0-0-0-0-0-0-0-0-0-0-0-0-0-0-0-0-0-0-0-0-0-0-0- 
- -0-0-0-0-0-0-0-0-0-0-0-0-0-0-0-0-0-0-0-0-0-0-0-0-0-0-0-0-0-0-0-0- 
PM ............................................................... 

- ----------------------------------------------------------------- 
- ----------------------------------------------------------------- 
- ----------------------------------------------------------------- 
- ----------------------------------------------------------------- 
- -3-3-3-3-3-3-3-3-3-3-3-3-3-3-3-3-3-3-3-3-3-3-3-3-3-3-3-3-3-3-3-3- 
- -3-3-3-3-3-3-3-3-3-3-3-3-3-3-3-3-3-3-3-3-3-3-3-3-3-3-3-3-3-3-3-3- 
PM ............................................................... 

- ----------------------------------------------------------------- 
- ----------------------------------------------------------------- 
- ----------------------------------------------------------------- 
- ----------------------------------------------------------------- 
- -5-5-5-5-5-5-5-5-3-3-3-3-3-3-3-3-2-2-2-2-2-2-2-2----------------- 
- -5-5-5-5-5-5-5-5-3-3-3-3-3-3-3-3-2-2-2-2-2-2-2-2-2-2-2-2-2-2-2-2- 
PM ............................................... 

- ----------------------------------------------------------------- 
- ----------------------------------------------------------------- 
- ----------------------------------------------------------------- 
- ----------------------------------------------------------------- 
- ----------------------------------------------------------------- 
- -0-0-0-0-0-0-0-0-0-0-0-0-0-0-0-0-0-0-0-0-0-0-0-0-0-0-0-0-0-0-0-0- 

- ----------------------------------------------------------------- 
- ----------------------------------------------------------------- 
- ----------------------------------------------------------------- 
- -3-----3-----3-3-3-----3-----3-3-3-----3-----3-3-3-----3-----3-3- 
- -3-3-3-3-3-3-3-3-3-3-3-3-3-3-3-3-3-3-3-3-3-3-3-3-3-3-3-3-3-3-3-3- 
- -3-3-3-3-3-3-3-3-3-3-3-3-3-3-3-3-3-3-3-3-3-3-3-3-3-3-3-3-3-3-3-3- 
PM   ...   ...       ...   ...       ...   ...       ...   ... 

- ----------------------------------------------------------------- 
- ----------------------------------------------------------------- 
- ----------------------------------------------------------------- 
- ----------------------------------------------------------------- 
- ----------------------------------------------------------------- 
- -5-5-5-5-5-5-5-5-3-3-3-3-3-3-3-3-2-2-2-2-2-2-2-2-2-2-2-2-2-2-2-2- 

- ----------------------------------------------------------------- 
- ----------------------------------------------------------------- 
- ----------------------------------------------------------------- 
- ----------------------------------------------------------------- 
- ----------------------------------------------------------------- 
- -2-2-2-2-2-2-2-2-2-2-2-2-2-2-2-2-2-2-2-2-2-2-2-2-2-2-2-2-2-2-2-2- 

Riff 6b, Guitar 1 & 2 - 01:30 - 02:08 
- ----------------------------------------------------------------- 
- ----------------------------------------------------------------- 
- -7-5---3---------7-5---3---------7-5---3---------7-5---3--------- 
- ---------7---5-3---------7---5-3---------7---5-3---------7---5--- 
- -----3-----3---------3-----3---------3-----3---------3-----3---3- 
- ----------------------------------------------------------------- 
PM ............................................................... 
- 
- ----------------------------------------------------------------- 
- ----------------------------------------------------------------- 
- -3-2-------------3-2-------------3-2-------------3-2------------- 
- -------5-3-------------5-3-------------5-3-------------5-3------- 
- -----3-----3-7-5-----3-----3-7-5-----3-----3-7-5-----3-----3-7-5- 
- ----------------------------------------------------------------- 
PM ............................................................... 


- ----------------------------------------------------------------- 
- ----------------------------------------------------------------- 
- ----------------------------------------------------------------- 
- ------------------------------------------------/7-7-7-7-7-7-7-7- 
- -5-5-5-5-5-5-5/7-7-7-7-7-7-7-7p3-5-5-5-5-5-5-5-5----------------- 
- ----------------------------------------------------------------- 
- 
- ----------------------------------------------------------------- 
- ----------------------------------------------------------------- 
- ----------------------------------------------------------------- 
- ------------------------------------------------/7-7-7-7-7-7-7-7- 
- -5-5-5-5-5-5-5/7-7-7-7-7-7-7-7p3-5-5-5-5-5-5-5-5----------------- 
- ----------------------------------------------------------------- 


- ----------------------------------------------------------------- 
- ----------------------------------------------------------------- 
- -7-5---3---------7-5---3----------------------------------------- 
- ---------7---5-3---------7---5----------------------------------- 
- -----3-----3---------3-----3---3-5-5-5-5-5-5-5/7-7-7-7-7-7-7-7-7- 
- ----------------------------------------------------------------- 
PM ............................... 
- 
- ----------------------------------------------------------------- 
- ----------------------------------------------------------------- 
- -3-2-------------3-2--------------------------------------------- 
- -------5-3-------------5-3--------------------------------------- 
- -----3-----3-7-5-----3-----3-7-5-5-5-5-5-5-5-5/7-7-7-7-7-7-7-7-7- 
- ----------------------------------------------------------------- 
PM ............................. 


- ----------------------------------------------------------------- 
- ----------------------------------------------------------------- 
- -7-5---3---------7-5---3---------7-5---3---------7-5---3--------- 
- ---------7---5-3---------7---5-3---------7---5-3---------7---5--- 
- -----3-----3---------3-----3---------3-----3---------3-----3---3- 
- ----------------------------------------------------------------- 
- 
- ----------------------------------------------------------------- 
- ----------------------------------------------------------------- 
- -3-2-------------3-2-------------3-2-------------3-2------------- 
- -------5-3-------------5-3-------------5-3-------------5-3------- 
- -----3-----3-7-5-----3-----3-7-5-----3-----3-7-5-----3-----3-7-5- 
- ----------------------------------------------------------------- 


- ----------------------------------------------------------------- 
- ----------------------------------------------------------------- 
- ----------------------------------------------------------------- 
- ------------------------------------------------/7-7-7-7-7-7-7-7- 
- -5-5-5-5-5-5-5/7-7-7-7-7-7-7-7p3-5-5-5-5-5-5-5-5----------------- 
- ----------------------------------------------------------------- 
- 
- ----------------------------------------------------------------- 
- ----------------------------------------------------------------- 
- ----------------------------------------------------------------- 
- ------------------------------------------------/7-7-7-7-7-7-7-7- 
- -5-5-5-5-5-5-5/7-7-7-7-7-7-7-7p3-5-5-5-5-5-5-5-5----------------- 
- ----------------------------------------------------------------- 


- ----------------------------------------------------------------- 
- ----------------------------------------------------------------- 
- -7-5---3---------7-5---3----------------------------------------- 
- ---------7---5-3---------7---5----------------------------------- 
- -----3-----3---------3-----3---3-5-5-5-5-5-5-5/7-7-7-7-7-7-7-7p3- 
- ----------------------------------------------------------------- 
- 
- ----------------------------------------------------------------- 
- ----------------------------------------------------------------- 
- -3-2-------------3-2--------------------------------------------- 
- -------5-3-------------5-3--------------------------------------- 
- -----3-----3-7-5-----3-----3-7-5-5-5-5-5-5-5-5/7-7-7-7-7-7-7-7p3- 
- ----------------------------------------------------------------- 
PM ............................. 


- --------------------------------- 
- --------------------------------- 
- --------------------------------- 
- -7-7-7-7-7-7-7\5-5-5-5-5-5-5-5-5- 
- --------------------------------- 
- --------------------------------- 
- 
- --------------------------------- 
- --------------------------------- 
- --------------------------------- 
- -7-7-7-7-7-7-7\5-5-5-5-5-5-5-5-5- 
- --------------------------------- 
- --------------------------------- 


Riff 7 - 02:08 - 02:19 
- ----------------------------------------------------------------- 
- -------------------------6------------------------------------- 
- -3-3---------------------6-----3-3----------------------------- 
- -x-x---6---6---6-6---6---6-----x-x---6---6---6-6---6---x-x-x--- 
- -1-1-0-5---5---5-5---5-----------1-1-0-5---5---5-5---5---x-x-x--- 
- -0-0-0-6---6---6-6---6-----------0-0-0-6---6---6-6---6---x-x-x--- 
PM     .                               .  

- --------------------------------------------------------------------- 
- --------------------------------------------------------------------- 
- -3-3-----------------------------3-3--------------------------------- 
- -x-x---6---6---6-6---6---6-6-6---x-x---6---6---6-6---6--------------- 
- -1-1-0-5---5---5-5---5---5-5-5---1-1-0-5---5---5-5---5---3p0---5p3--- 
- -0-0-0-6---6---6-6---6---6-6-6---0-0-0-6---6---6-6---6-------0-----0- 
PM     .                               .                       .     . 

Riff 8 - 02:19 - 02:32 
- ------------------------------------------------- 
- ------------------------------------------------- 
- ------------------------------------------------- 
- -6---6-------6---6-------6---6-------6---6------- 
- -5---5---0-0-5---5---0-0-5---5---0-0-5---5---0-0- 
- -6---6---0-0-6---6---0-0-6---6---0-0-6---6---0-0- 
PM         ...         ...         ...         ... 

- ------------------------------------------------- 
- ------------------------------------------------- 
- ------------------------------------------------- 
- -7---7-------7---7-------7---7-------7---7------- 
- -5---5---0-0-5---5---0-0-5---5---0-0-5---5---0-0- 
- -0---0---0-0-0---0---0-0-0---0---0-0-0---0---0-0- 
PM         ...         ...         ...         ... 

- ------------------------------------------------- 
- ------------------------------------------------- 
- ------------------------------------------------- 
- -6---6-------6---6-------6---6-------6---6------- 
- -5---5-------5---5-------5---5-------5---5------- 
- -6---6-------6---6-------6---6-------6---6------- 

Riff 9a, Guitar - 02:32 - 02:55 
- ----------------------------------------------------------------- 
- ----------------------------------------------------------------- 
- ----------------------------------------------------------------- 
- -0~-------------------------------------------------------------- 
- -0~-------------------------------------------------------------- 
- -0~-------------------------------------------------------------- 

Riff 9b, Synth - 02:32 - 02:55 - x2 
- ----------------------------------------------------------------- 
- ---------3-------------------------------3----------------------- 
- ----------------------------------------------------------------- 
- ----------------------------------------------------------------- 
- -----0-------------------------------0--------------------------- 
- -0-------------------------------0------------------------------- 

- ----------------------------------------------------------------- 
- ---------3-------------------------------3----------------------- 
- ----------------------------------------------------------------- 
- ----------------------------------------------------------------- 
- -----3-------------------------------0--------------------------- 
- -3-------------------------------0-------------------------------  
  

top 5 | the devil wears prada
top thrash metal
Outras músicas do artista letras do(a) The Devil Wears Prada
Top cifras »Top artistas »
Petaxxon Comunicação Online
Cifras.com.br - Melhor e mais completo site de cifras e tablaturas do Brasil
Mais de 1 milhão de acordes de músicas cadastradas desde 2003
As informações contidas no nosso site são colaborações de seus usuários e podem conter erros, sendo assim, não nos responsabilizamos sobre nenhuma destas.
close
menos
mais
close
Cor dos acordes:

Cor da letra:

 

save
close
close
 
redimensionar