Cifras e Tablaturas
The Fall Of Troy

The Fall Of Troy

Suck-o-matic

Cifras Cancelar Versão de Impressão
cifras

The Fall Of Troy - Suck-o-matic

fixar na tela  
Exibindo: vídeo-aula ver clipes redimensionar
  
Part 1 

eb|----------------------------------------------------------------| 
Bb|----------------------------------------------------------------| 
Gb|------5-----7-----9-----------5-----7-----9-----12--------------| 
Db|----3-----5-----7-----------3-----5-----7-----10----------------| 
Ab|--5-----7-----8-----------5-----7-----8-----12------------------| 
Eb|----------------------------------------------------------------| 

eb|----------------------------------------------------------------| 
Bb|----------------------------------------------------------------| 
Gb|------5-----7/9p0-----4p0---------------------------------------| 
Db|----3-----5---------5-------5-5-5-------------------------------| 
Ab|--5-----7---------3---------5-5-5-------------------------------| 
Eb|----------------------------3-3-3-------------------------------| 


Part 2 

eb|----------------------------------------------------------------------------------| 
Bb|--------------------------8h10p8p0------------------------------------------------| 
Gb|------------------------------------7--8--9---------------------------------------| 
Db|--7---9h10p9---------7-------------------------7---9h10p9-----------3--2--6-------| 
Ab|--7---------10/12----7-------------------------7----------10/12p0---3--2--6-------| 
Eb|--5------------------5-------------------------5--------------------1--0--4-------| 

eb|-------------------------------------------------------12--------------15--13--12-| 
Bb|--------------------------8h10p8p0---------------12---------------15--------------| 
Gb|------------------------------------7--8--9----10----10----10---16----------------| 
Db|--7---9h10p9---------7-----------------------12----12----12---15------------------| 
Ab|--7---------10/12----7------------------------------------------------------------| 
Eb|--5------------------5------------------------------------------------------------| 


Sweep 

eb|-------------12--------------| 
Bb|-----------13--13------------| 
Gb|---------14------14----------| 
Db|-------14----------14--------| 
Ab|--12-15--------------15-12---| 
Eb|-----------------------------| 


Part 3 

starts at 1:28 

eb|------------------------3-x-2----------------------------------------------------3------| 
Bb|--------3p0-------------3-x-3-----3p0---------5-7------------3p0-------------3------| 
Gb|-----------4p0-----------------------4p0------5-7---------------4p0-----------------| 
Db|---------------0-------------------------0----------------------------0-----------------| 
Ab|--3-3-3----------------------3-3-3-----------------------3-3-3--------------------------| 
Eb|------------------0-0-0--------------------0-----------------------------0-0-0-----0-0--| 

eb|-------------| 
Bb|-------------| 
Gb|-7-----7-----| 
Db|-7-----7-----| x2 
Ab|-5-5-5-5-5-5-| 
Eb|-------------| 


The extra harmonics are on the 12th fret on the second and third string. 


Part 4 

eb|---------------------------------------------------------------------------------------------------------| 
Bb|--------5p0----------6p0----------5p0----------3p0---------5p0---------6p0---------1p0---------3p0-------| 
Gb|-----------5p0----------7p0----------5p0----------4p0---------5p0---------7p0---------2p0---------4p0----| 
Db|---------------------------------------------------------------------------------------------------------| 
Ab|---------------------------------------------------------------------------------------------------------| 
Eb|--5-5-5--------6-6-6--------5-5-5--------3-3-3--------5-5-5-------6-6-6-------1-1-1-------4-4-4----------| 

Transpose 12 frets higher if you want to match the faint guitar. 


Part 5 

eb|-----------------------------------------------------------| 
Bb|-----------------------------------------------------------| 
Gb|-----------------------------------------------------------|  
Db|--7--7--7---8--8----3--3--3---2--6-6-6---------------------| Add extra strums with the bass pedal kicking 
Ab|--7--7--7---8--8----3--3--3---2--6-6-6---------------------| 
Eb|--5--5--5---6--6----1--1--1---0--4-4-4---------------------| 



************************************ 
| h   Hammer-on 
| p   Pull-off 
| /   Slide to 
|   Harmonic 
************************************ 
  

cifra enviadasem correções
enviado porenviada por:tercmoraes
top 5 | the fall of troy
top rock alternativo
Outras músicas do artista letras do(a) The Fall Of Troy
Top cifras »Top artistas »
Petaxxon Comunicação Online
Cifras.com.br - Melhor e mais completo site de cifras e tablaturas do Brasil
Mais de 1 milhão de acordes de músicas cadastradas desde 2003
As informações contidas no nosso site são colaborações de seus usuários e podem conter erros, sendo assim, não nos responsabilizamos sobre nenhuma destas.
close
menos
mais
close
Cor dos acordes:

Cor da letra:

 

save
close
close
 
redimensionar