Cifras e Tablaturas
The Field Mice

The Field Mice

This Love Is Not Wrong

Cifras Cancelar Versão de Impressão
cifras

The Field Mice - This Love Is Not Wrong

fixar na tela  
Exibindo: vídeo-aula ver clipes redimensionar
  
Intro 
e|------------|------------|----------|------------| 
B|-9-10-9-7---|-9-10-9-7---|-9-10-9-7-|-9-10-9-7---| 
G|----------9-|----------9-|----------|----------8-|  
D|------------|------------|----------|------------| 
A|------------|------------|----------|------------| 
E|------------|------------|----------|------------| 

e|------------|------------|----------|----------| 
B|-9-10-9-7---|-9-10-9-7---|-9-10-9-7-|-9-10-9-7-| 
G|----------9-|----------9-|----------|----------|  
D|------------|------------|----------|----------| 
A|------------|------------|----------|----------| 
E|------------|------------|----------|----------| 

verse 1 
  E                            F#m           Abm 
e|---0-0----0-0----0-0----0-0-|----------------------------| 
B|-0------0------0------0-----|---2-2----2-2----4-4----4-4-| 
G|----------------------------|-2------2------4------4-----| (x2) 
D|----------------------------|----------------------------| 
A|----------------------------|----------------------------| 
E|----------------------------|----------------------------| 

Why is it they cannot see any love this precious? 
It really does anger me, that they disapprove of this love 

Chorus 
e|---0-0----2-2---7-4-------|---0---| 
B|-2------4-----5------2----|-2---4-| 
G|--------------------------|-------| 
D|--------------------------|-------| 
A|--------------------------|-------| 
E|--------------------------|-------| 

This love is as good as any other 
As good as any other 
This love is not wrong 
Not wrong 
Not wrong 

verse 2 
  E                            F#m           Abm 
e|---0-0----0-0----0-0----0-0-|----------------------------| 
B|-0------0------0------0-----|---2-2----2-2----4-4----4-4-| 
G|----------------------------|-2------2------4------4-----| (x2) 
D|----------------------------|----------------------------| 
A|----------------------------|----------------------------| 
E|----------------------------|----------------------------| 

Why is it that they knock something so special? 
If only they could see when you touch me I tingle 

Chorus 
e|---0-0----2-2---7-4-------|---0---| 
B|-2------4-----5------2----|-2---4-| 
G|--------------------------|-------| 
D|--------------------------|-------| 
A|--------------------------|-------| 
E|--------------------------|-------| 

This love is as good as any other 
As good as any other 
This love is not wrong 
Not wrong 
Not wrong 

Bridge 
Why am i letting them get to me? 
Those who don't understand that only good things can 
come from what we feel for one another 
At the moment, at this point in time 

verse 3 
  E                            F#m           Abm 
e|---0-0----0-0----0-0----0-0-|----------------------------| 
B|-0------0------0------0-----|---2-2----2-2----4-4----4-4-| 
G|----------------------------|-2------2------4------4-----| (x2) 
D|----------------------------|----------------------------| 
A|----------------------------|----------------------------| 
E|----------------------------|----------------------------| 

Why is it that this love we have upsets them? 
Why is it that they find this love upsetting? 

Chorus 
e|---0-0----2-2---7-4-------|---0---| 
B|-2------4-----5------2----|-2---4-| 
G|--------------------------|-------| 
D|--------------------------|-------| 
A|--------------------------|-------| 
E|--------------------------|-------| 

This love is as good as any other 
Says one woman to another 
This love is not wrong 
Not wrong 
Not wrong 
  

cifra enviadasem correções
enviado porenviada por:carlluz
top 5 | the field mice
top rock'n roll
Outras músicas do artista letras do(a) The Field Mice
Top cifras »Top artistas »
Petaxxon Comunicação Online
Cifras.com.br - Melhor e mais completo site de cifras e tablaturas do Brasil
Mais de 1 milhão de acordes de músicas cadastradas desde 2003
As informações contidas no nosso site são colaborações de seus usuários e podem conter erros, sendo assim, não nos responsabilizamos sobre nenhuma destas.
close
menos
mais
close
Cor dos acordes:

Cor da letra:

 

save
close
close
 
redimensionar