Cifras e Tablaturas
Cifras Cancelar Versão de Impressão
cifras

The Front Bottoms - Bae

fixar na tela  
Exibindo: vídeo-aula ver clipes redimensionar

Tom:

  
Intro 

e|-------------------|-------------| 
B|-------------------|-------------| 
G|-------------------|-------------| 
D|-3-3-3-4-4-4-4-4-4-|-4-4-4-4-4-4-| (x2) 
A|-3-3-3-4-4-4-4-4-4-|-4-4-4-4-4-4-| 
E|-1-1-1-2-2-2-2-2-2-|-2-2-2-2-2-2-| 


verse 1 

e|-------------------|-------------|-------------------|-------------| 
B|-------------------|-------------|-------------------|-------------| 
G|-------------------|-------------|-------------------|-------------| 
D|-3-3-3-4-4-4-4-4-4-|-4-4-4-4-4-4-|-3-3-3-4-4-4-4-4-4-|-4-4-4-4-4-4-| 
A|-3-3-3-4-4-4-4-4-4-|-4-4-4-4-4-4-|-3-3-3-4-4-4-4-4-4-|-4-4-4-4-4-4-| 
E|-1-1-1-2-2-2-2-2-2-|-2-2-2-2-2-2-|-1-1-1-2-2-2-2-2-2-|-2-2-2-2-2-2-| 

e|-------------------|-------------|-------------------|-------------| 
B|-------------------|-------------|-------------------|-------------| 
G|-3-3-3-4-4-4-4-4-4-|-4-4-4-4-4-4-|-3-3-3-4-4-4-4-4-4-|-4-4-4-4-4-4-| 
D|-3-3-3-4-4-4-4-4-4-|-4-4-4-4-4-4-|-3-3-3-4-4-4-4-4-4-|-4-4-4-4-4-4-| 
A|-1-1-1-2-2-2-2-2-2-|-2-2-2-2-2-2-|-1-1-1-2-2-2-2-2-2-|-2-2-2-2-2-2-| 
E|-------------------|-------------|-------------------|-------------| 

e|-------------------|-------------|-------------------|-------------| 
B|-------------------|-------------|-------------------|-------------| 
G|-------------------|-------------|-------------------|-------------| 
D|-3-3-3-4-4-4-4-4-4-|-4-4-4-4-4-4-|-3-3-3-4-4-4-4-4-4-|-4-4-4-4-4-4-| 
A|-3-3-3-4-4-4-4-4-4-|-4-4-4-4-4-4-|-3-3-3-4-4-4-4-4-4-|-4-4-4-4-4-4-| 
E|-1-1-1-2-2-2-2-2-2-|-2-2-2-2-2-2-|-1-1-1-2-2-2-2-2-2-|-2-2-2-2-2-2-| 

e|-------------------|-------------|-------------------|-------------| 
B|-------------------|-------------|-------------------|-------------| 
G|-3-3-3-4-4-4-4-4-4-|-4-4-4-4-4-4-|-3-3-3-4-4-4-4-4-4-|-4-4-4-4-4-4-| 
D|-3-3-3-4-4-4-4-4-4-|-4-4-4-4-4-4-|-3-3-3-4-4-4-4-4-4-|-4-4-4-4-4-4-| 
A|-1-1-1-2-2-2-2-2-2-|-2-2-2-2-2-2-|-1-1-1-2-2-2-2-2-2-|-2-2-2-2-2-2-| 
E|-------------------|-------------|-------------------|-------------| 


Pre-Chorus 1 

e|-------------------|-------------|-------------------|-------------| 
B|-------------------|-------------|-------------------|-------------| 
G|-------------------|-------------|-------------------|-------------| 
D|-3-3-3-4-4-4-4-4-4-|-4-4-4-4-4-4-|-3-3-3-4-4-4-4-4-4-|-4-4-4-4-4-4-| 
A|-3-3-3-4-4-4-4-4-4-|-4-4-4-4-4-4-|-3-3-3-4-4-4-4-4-4-|-4-4-4-4-4-4-| 
E|-1-1-1-2-2-2-2-2-2-|-2-2-2-2-2-2-|-1-1-1-2-2-2-2-2-2-|-2-2-2-2-2-2-| 

e|-------------------|-------------|-------------------|-------------| 
B|-------------------|-------------|-------------------|-------------| 
G|-3-3-3-4-4-4-4-4-4-|-4-4-4-4-4-4-|-3-3-3-4-4-4-4-4-4-|-4-4-4-4-4-4-| 
D|-3-3-3-4-4-4-4-4-4-|-4-4-4-4-4-4-|-3-3-3-4-4-4-4-4-4-|-4-4-4-4-4-4-| 
A|-1-1-1-2-2-2-2-2-2-|-2-2-2-2-2-2-|-1-1-1-2-2-2-2-2-2-|-2-2-2-2-2-2-| 
E|-------------------|-------------|-------------------|-------------| 


Chorus 1 

e|-------|-----------------|-----------------| 
B|-------|-----------------|-----------------| 
G|-------|-----------------|-----------------| 
D|-3-3-3-|-4-4-4-4-4-4-4-4-|-4-4-4-4-4-4-4-4-|  
A|-3-3-3-|-4-4-4-4-4-4-4-4-|-4-4-4-4-4-4-4-4-| 
E|-1-1-1-|-2-2-2-2-2-2-2-2-|-2-2-2-2-2-2-2-2-| 

e|-----------------|-----------------|-----------------|-----------------| 
B|-----------------|-----------------|-----------------|-----------------| 
G|-6-6-6-6-6-6-6-6-|-6-6-6-6-6-6-6-6-|-4-4-4-4-4-4-4-4-|-4-4-4-4-4-4-4-4-| 
D|-6-6-6-6-6-6-6-6-|-6-6-6-6-6-6-6-6-|-4-4-4-4-4-4-4-4-|-4-4-4-4-4-4-4-4-| 
A|-4-4-4-4-4-4-4-4-|-4-4-4-4-4-4-4-4-|-2-2-2-2-2-2-2-2-|-2-2-2-2-2-2-2-2-| 
E|-----------------|-----------------|-----------------|-----------------| 

e|-----------------|---------| 
B|-----------------|---------| 
G|-----------------|-6-6-6-6-| 
D|-4-4-4-4-4-4-4-4-|-6-6-6-6-| 
A|-4-4-4-4-4-4-4-4-|-4-4-4-4-| 
E|-2-2-2-2-2-2-2-2-|---------| 


e|-------------------|-------------|-------------------|-------------| 
B|-------------------|-------------|-------------------|-------------| 
G|-------------------|-------------|-------------------|-------------| 
D|-3-3-3-4-4-4-4-4-4-|-4-4-4-4-4-4-|-3-3-3-4-4-4-4-4-4-|-4-4-4-4-4-4-| 
A|-3-3-3-4-4-4-4-4-4-|-4-4-4-4-4-4-|-3-3-3-4-4-4-4-4-4-|-4-4-4-4-4-4-| 
E|-1-1-1-2-2-2-2-2-2-|-2-2-2-2-2-2-|-1-1-1-2-2-2-2-2-2-|-2-2-2-2-2-2-| 

e|-------------------|-------------|-------------------|-------------| 
B|-------------------|-------------|-------------------|-------------| 
G|-3-3-3-4-4-4-4-4-4-|-4-4-4-4-4-4-|-3-3-3-4-4-4-4-4-4-|-4-4-4-4-4-4-| 
D|-3-3-3-4-4-4-4-4-4-|-4-4-4-4-4-4-|-3-3-3-4-4-4-4-4-4-|-4-4-4-4-4-4-| 
A|-1-1-1-2-2-2-2-2-2-|-2-2-2-2-2-2-|-1-1-1-2-2-2-2-2-2-|-2-2-2-2-2-2-| 
E|-------------------|-------------|-------------------|-------------| 


verse 2 

e|-------------------|-------------|-------------------|-------------| 
B|-------------------|-------------|-------------------|-------------| 
G|-------------------|-------------|-------------------|-------------| 
D|-3-3-3-4-4-4-4-4-4-|-4-4-4-4-4-4-|-3-3-3-4-4-4-4-4-4-|-4-4-4-4-4-4-| 
A|-3-3-3-4-4-4-4-4-4-|-4-4-4-4-4-4-|-3-3-3-4-4-4-4-4-4-|-4-4-4-4-4-4-| 
E|-1-1-1-2-2-2-2-2-2-|-2-2-2-2-2-2-|-1-1-1-2-2-2-2-2-2-|-2-2-2-2-2-2-| 

e|-------------------|-------------|-------------------|-------------| 
B|-------------------|-------------|-------------------|-------------| 
G|-3-3-3-4-4-4-4-4-4-|-4-4-4-4-4-4-|-3-3-3-4-4-4-4-4-4-|-4-4-4-4-4-4-| 
D|-3-3-3-4-4-4-4-4-4-|-4-4-4-4-4-4-|-3-3-3-4-4-4-4-4-4-|-4-4-4-4-4-4-| 
A|-1-1-1-2-2-2-2-2-2-|-2-2-2-2-2-2-|-1-1-1-2-2-2-2-2-2-|-2-2-2-2-2-2-| 
E|-------------------|-------------|-------------------|-------------| 


Pre-Chorus 2 

e|-------------------|-------------|-------------------|-------------| 
B|-------------------|-------------|-------------------|-------------| 
G|-------------------|-------------|-------------------|-------------| 
D|-3-3-3-4-4-4-4-4-4-|-4-4-4-4-4-4-|-3-3-3-4-4-4-4-4-4-|-4-4-4-4-4-4-| 
A|-3-3-3-4-4-4-4-4-4-|-4-4-4-4-4-4-|-3-3-3-4-4-4-4-4-4-|-4-4-4-4-4-4-| 
E|-1-1-1-2-2-2-2-2-2-|-2-2-2-2-2-2-|-1-1-1-2-2-2-2-2-2-|-2-2-2-2-2-2-| 

e|-------------------|-------------|-------------------|-------------| 
B|-------------------|-------------|-------------------|-------------| 
G|-3-3-3-4-4-4-4-4-4-|-4-4-4-4-4-4-|-3-3-3-4-4-4-4-4-4-|-4-4-4-4-4-4-| 
D|-3-3-3-4-4-4-4-4-4-|-4-4-4-4-4-4-|-3-3-3-4-4-4-4-4-4-|-4-4-4-4-4-4-| 
A|-1-1-1-2-2-2-2-2-2-|-2-2-2-2-2-2-|-1-1-1-2-2-2-2-2-2-|-2-2-2-2-2-2-| 
E|-------------------|-------------|-------------------|-------------| 


Chorus 2 

e|-------|-----------------|-----------------| 
B|-------|-----------------|-----------------| 
G|-------|-----------------|-----------------| 
D|-3-3-3-|-4-4-4-4-4-4-4-4-|-4-4-4-4-4-4-4-4-|  
A|-3-3-3-|-4-4-4-4-4-4-4-4-|-4-4-4-4-4-4-4-4-| 
E|-1-1-1-|-2-2-2-2-2-2-2-2-|-2-2-2-2-2-2-2-2-| 

e|-----------------|-----------------|-----------------|-----------------| 
B|-----------------|-----------------|-----------------|-----------------| 
G|-6-6-6-6-6-6-6-6-|-6-6-6-6-6-6-6-6-|-4-4-4-4-4-4-4-4-|-4-4-4-4-4-4-4-4-| 
D|-6-6-6-6-6-6-6-6-|-6-6-6-6-6-6-6-6-|-4-4-4-4-4-4-4-4-|-4-4-4-4-4-4-4-4-| 
A|-4-4-4-4-4-4-4-4-|-4-4-4-4-4-4-4-4-|-2-2-2-2-2-2-2-2-|-2-2-2-2-2-2-2-2-| 
E|-----------------|-----------------|-----------------|-----------------| 

e|-----------------|---------| 
B|-----------------|---------| 
G|-----------------|-6-6-6-6-| 
D|-4-4-4-4-4-4-4-4-|-6-6-6-6-| 
A|-4-4-4-4-4-4-4-4-|-4-4-4-4-| 
E|-2-2-2-2-2-2-2-2-|---------| 

e|-------|-----------------|-----------------| 
B|-------|-----------------|-----------------| 
G|-------|-----------------|-----------------| 
D|-3-3-3-|-4-4-4-4-4-4-4-4-|-4-4-4-4-4-4-4-4-|  
A|-3-3-3-|-4-4-4-4-4-4-4-4-|-4-4-4-4-4-4-4-4-| 
E|-1-1-1-|-2-2-2-2-2-2-2-2-|-2-2-2-2-2-2-2-2-| 

e|-----------------|-----------------|-----------------|-----------------| 
B|-----------------|-----------------|-----------------|-----------------| 
G|-6-6-6-6-6-6-6-6-|-6-6-6-6-6-6-6-6-|-4-4-4-4-4-4-4-4-|-4-4-4-4-4-4-4-4-| 
D|-6-6-6-6-6-6-6-6-|-6-6-6-6-6-6-6-6-|-4-4-4-4-4-4-4-4-|-4-4-4-4-4-4-4-4-| 
A|-4-4-4-4-4-4-4-4-|-4-4-4-4-4-4-4-4-|-2-2-2-2-2-2-2-2-|-2-2-2-2-2-2-2-2-| 
E|-----------------|-----------------|-----------------|-----------------| 

e|-----------------|---------| 
B|-----------------|---------| 
G|-----------------|-6-6-6-6-| 
D|-4-4-4-4-4-4-4-4-|-6-6-6-6-| 
A|-4-4-4-4-4-4-4-4-|-4-4-4-4-| 
E|-2-2-2-2-2-2-2-2-|---------| 


e|-------------------|-------------|-------------------|-------------| 
B|-------------------|-------------|-------------------|-------------| 
G|-------------------|-------------|-------------------|-------------| 
D|-3-3-3-4-4-4-4-4-4-|-4-4-4-4-4-4-|-3-3-3-4-4-4-4-4-4-|-4-4-4-4-4-4-| 
A|-3-3-3-4-4-4-4-4-4-|-4-4-4-4-4-4-|-3-3-3-4-4-4-4-4-4-|-4-4-4-4-4-4-| 
E|-1-1-1-2-2-2-2-2-2-|-2-2-2-2-2-2-|-1-1-1-2-2-2-2-2-2-|-2-2-2-2-2-2-| 

e|-------------------|-------------|-------------------|-------------| 
B|-------------------|-------------|-------------------|-------------| 
G|-3-3-3-4-4-4-4-4-4-|-4-4-4-4-4-4-|-3-3-3-4-4-4-4-4-4-|-4-4-4-4-4-4-| 
D|-3-3-3-4-4-4-4-4-4-|-4-4-4-4-4-4-|-3-3-3-4-4-4-4-4-4-|-4-4-4-4-4-4-| 
A|-1-1-1-2-2-2-2-2-2-|-2-2-2-2-2-2-|-1-1-1-2-2-2-2-2-2-|-2-2-2-2-2-2-| 
E|-------------------|-------------|-------------------|-------------| 


Outro 

e|-------------------|-------------|-------------------|-------------| 
B|-------------------|-------------|-------------------|-------------| 
G|-------------------|-------------|-------------------|-------------| 
D|-3-3-3-4-4-4-4-4-4-|-4-4-4-4-4-4-|-3-3-3-4-4-4-4-4-4-|-4-4-4-4-4-4-| 
A|-3-3-3-4-4-4-4-4-4-|-4-4-4-4-4-4-|-3-3-3-4-4-4-4-4-4-|-4-4-4-4-4-4-| 
E|-1-1-1-2-2-2-2-2-2-|-2-2-2-2-2-2-|-1-1-1-2-2-2-2-2-2-|-2-2-2-2-2-2-| 

e|-------------------|-------------|-------------------|-------------| 
B|-------------------|-------------|-------------------|-------------| 
G|-3-3-3-4-4-4-4-4-4-|-4-4-4-4-4-4-|-3-3-3-4-4-4-4-4-4-|-4-4-4-4-4-4-| 
D|-3-3-3-4-4-4-4-4-4-|-4-4-4-4-4-4-|-3-3-3-4-4-4-4-4-4-|-4-4-4-4-4-4-| 
A|-1-1-1-2-2-2-2-2-2-|-2-2-2-2-2-2-|-1-1-1-2-2-2-2-2-2-|-2-2-2-2-2-2-| 
E|-------------------|-------------|-------------------|-------------| 

e|----------| 
B|----------| 
G|----------| 
D|-3-3-3-4--| 
A|-3-3-3-4--| 
E|-1-1-1-2--| 
  

top 5 | the front bottoms
top pop music
Outras músicas do artista letras do(a) The Front Bottoms
1.
Maps
Top cifras »Top artistas »
Petaxxon Comunicação Online
Cifras.com.br - Melhor e mais completo site de cifras e tablaturas do Brasil
Mais de 1 milhão de acordes de músicas cadastradas desde 2003
As informações contidas no nosso site são colaborações de seus usuários e podem conter erros, sendo assim, não nos responsabilizamos sobre nenhuma destas.
close
menos
mais
close
Cor dos acordes:

Cor da letra:

 

save
close
close
 
redimensionar