Cifras e Tablaturas
The Hard Aches

The Hard Aches

I Get Like This

Cifras Cancelar Versão de Impressão
cifras

The Hard Aches - I Get Like This

fixar na tela  
Exibindo: vídeo-aula ver clipes redimensionar

Tom:

  
Intro 

e|-2----------|-0-----------|-5---------------| 
B|-4----------|-2-----------|-7---------------| 
G|-5----------|-2-----------|-7---------------| 
D|-5----------|-2-----------|-7---------------|   4x 
A|-2----------|-------------|-5---------------| 
D|------------|-------------|-----------------| 

e|--------------------|-------------------| 
B|--------------------|-------------------| 
G|-4-4-----4-4--2-2-x-|-7-7-----7-7-------| 
D|-4-4-----4-4--2-2-x-|-7-5-----7-7-------|    4x 
A|-2-2-----2-2--0-0-x-|-5-5-----5-5-5-5-x-| 
D|--------------------|-------------5-5-x-| 


Verse Fig. 1 

e|------------------------| 
B|------------------------| 
G|-2-2/-4-4--4-----7-7--7-| 
D|-2-2/-4-4--4-----7-7--7-| 7x 
A|-0-0/-2-2--2-5-5-5-5--5-| 
D|-------------5-5--------| 

e|---------------------------| 
B|---------------------------| 
G|-2-2/-2-2--2---------------| 
D|-2-2/-2-2--2---------------| 1x 
A|-0-0/-4-4--4-5-5-5-5-5-5-5-| 
D|-------------5-5-5-5-5-5-5-| 


Chorus Fig.2  

e|-----------|-----------| 
B|-----------|-----------| 
G|-4-4-------|-7-7-------|  
D|-4-4---2-2-|-7-7-------|  4x 
A|-2-2---0-0-|-5-5---5-5-| 
D|-----------|-------5-5-| 


Pre-Verse 

e|---------------|--------------|---------------|-----------------| 
B|---------------|--------------|---------------|-----------------| 
G|---------------|--------------|---------------|-----------------| 
D|-------0-----0-|------0-----0-|-------0-----0-|-2-2-2-0-2-5-5-5-|  2x 
A|-2---0-----4---|-2---0-----4--|-2---0-----4---|-2-2-2-0-2-5-5-5-| 
D|---4-----5-----|--4-----5-----|---4-----5-----|-2-2-2-0-2-5-5-5-| 


Fig. 3 

e|-2----------|-0-----------|-5---------------| 
B|-4----------|-2-----------|-7---------------| 
G|-5----------|-2-----------|-7---------------| 
D|-5----------|-2-----------|-7---------------|   4x 
A|-2----------|-------------|-5---------------| 
D|------------|-------------|-----------------| 

e|-----------------|-----------------| 
B|-----------------|-----------------| 
G|-4-4-4-4-2-2-2-2-|-7-7-7-7---------| 
D|-4-4-4-4-2-2-2-2-|-7-7-7-7---------| 4x 
A|-2-2-2-2-0-0-0-0-|-5-5-5-5-5-5-5-5-| 
D|-----------------|---------5-5-5-5-| 

e|-2----------|-0-----------|-5---------------| 
B|-4----------|-2-----------|-7---------------| 
G|-5----------|-2-----------|-7---------------| 
D|-5----------|-2-----------|-7---------------|   2x 
A|-2----------|-------------|-5---------------| 
D|------------|-------------|-----------------| 
 
  

top 5 | the hard aches
top rock'n roll
Outras músicas do artista letras do(a) The Hard Aches
Top cifras »Top artistas »
Petaxxon Comunicação Online
Cifras.com.br - Melhor e mais completo site de cifras e tablaturas do Brasil
Mais de 1 milhão de acordes de músicas cadastradas desde 2003
As informações contidas no nosso site são colaborações de seus usuários e podem conter erros, sendo assim, não nos responsabilizamos sobre nenhuma destas.
close
menos
mais
close
Cor dos acordes:

Cor da letra:

 

save
close
close
 
redimensionar