Cifras e Tablaturas
The Haunted

The Haunted

Kill The Light

Cifras Cancelar Versão de Impressão
cifras

The Haunted - Kill The Light

fixar na tela  
Exibindo: vídeo-aula ver clipes redimensionar
  
Tuning: D G C F A D

Intro 
  GTR I 
D|-----------------------------------|-------------------------------|-----------------------------------| 
A|-----------------------------------|-------------------------------|-----------------------------------| 
F|-----------------------------------|-------------------------------|-----------------------------------| 
C|----------9\7/9--------------------|-10\9/10-----------------------|----------9\7/9--------------------| 
G|----------7\5/7--------------------|--8\7/8----------------5-8-7-5-|----------7\5/7--------------------| 
D|-0--0-0-0-------0--0-0-0--0--0-0-0-|---------0--0-0-0--5-6---------|-0--0-0-0-------0--0-0-0--0--0-0-0-| 
 | 
 |GTR II (Guitar 2 second time through only) 
D|-----------------------------------|-------------------------------|-----------------------------------| 
A|-----------------------------------|-------------------------------|-----------------------------------| 
F|-----------------------------------|-------------------------------|-----------------------------------| 
C|-2---------------------------------|-3-----------------------------|-2---------------------------------| 
G|-2---------------------------------|-3-----------------------------|-2---------------------------------| 
D|-0---------------------------------|-1-----------------------------|-0---------------------------------| 

  GTR I 
D|-------------------------------|-----------------------------------|-------------------------------| 
A|-------------------------------|-----------------------------------|-------------------------------| 
F|-10\9/10-----------------------|-----------------------------------|-------------------------------| 
C|--8\7/8-----------8-7-5-7-5----|----------9\7/9--------------------|-10\9/10-----------------------| 
G|-----------------------------8-|----------7\5/7--------------------|--8\7/8----------------5-8-7-5-| 
D|---------0--0-0-0--------------|-0--0-0-0-------0--0-0-0--0--0-0-0-|---------0--0-0-0--5-6---------| 
 | 
 |GTR II (Guitar 2 second time through only) 
D|-------------------------------|-----------------------------------|-----------------------------------| 
A|-------------------------------|-----------------------------------|-----------------------------------| 
F|-------------------------------|-----------------------------------|-----------------------------------| 
C|-8----------------5------------|-2---------------------------------|-3---------------------------------| 
G|-8----------------5------------|-2---------------------------------|-3---------------------------------| 
D|-6----------------3------------|-0---------------------------------|-1---------------------------------| 

GTR I&II 
PM---------------------------------------|1.-------------------------|2.--------------------------| 
D|----------------------------------------|---------------------------|---------------------------| 
A|----------------------------------------|---------------------------|---------------------------| 
F|----------------------------------------|---------------------------|-----------------------0---|  x2 
C|----------------------------------------|---------------------------|-----------------------0---| 
G|-5--5-5-5--5--5-5-5--5--5-5-5--5--5-5-5-|--2-2-2-0-0-0--3-3-3-3-3-3-|--2-2-2-2-2-2--3-------2---| 
D|-3--3-3-3--3--3-3-3--3--3-3-3--3--3-3-3-|--1-1-1-1-1-1--1-1-1-1-1-1-|--1-1-1-1-1-1--1-4-3-1-0---| 


Verse 
 GTR I PM-----------------------------|       PM---------------------------------------------| 
D|-------------------------------------------|-----------------------------------------------| 
A|-------------------------------------------|-----------------------------------------------| 
F|-------------------------------4\3-3-3-3-3-|-----------------------------------------------| 
C|-------------------------------------------|---------------------------------9-----10-9----| 
G|-2-2-2--2--2-2-2--2--2-2-2--2--2\1-1-1-1-1-|-2-2-2--2--2-2-2--2--2-2-2--2------7-7------7--| 
D|-0-0-0--0--0-0-0--0--0-0-0--0--------------|-0-0-0--0--0-0-0--0--0-0-0--0------------------| 
 | 
 |GTR II (Guitar 2 second time through only) 
D|-------------------------------------------|-----------------------------------------------| 
A|-------------------------------------------|-----------------------------------------------| 
F|-9-------------------11--------------------|-3-------------------------------7-------------| 
C|-------------------------------------------|-----------------------------------------------| 
G|-7-------------------9---------------------|-1-------------------------------5-------------| 
D|-------------------------------------------|-----------------------------------------------| 

GTR I PM-----------------------|            1.-------------------------------|2.-----------------------------| 
D|------------------------------------------|---------------------------------|------------------------------| 
A|------------------------------------------|---------------------------------|------------------------------| 
F|------------------------------4\3-3-3-3-3-|---------------------------------|------------------------------| 
C|------------------------------------------|---------------------------------|------------------------------| 
G|-2-2-2--2--2-2-2--2--2-2-2--2-2\1-1-1-1-1-|-----------------------------5/8-|------------------------8-7-5-| 
D|-0-0-0--0--0-0-0--0--0-0-0--0-------------|2-0-2-0-2-0-2-0-3-0-3-0-6-5-3----|2-0-2-0-2-0-2-0-3-0-3-0-6-5-3-| 
 | 
 |GTR II (Guitar 2 second time through only) 
D|-------------------------------------------| 
A|-------------------------------------------| 
F|-9-------------------11--------------------|  x2(repeat from beginning of verse, GTR II on second time only) 
C|-------------------------------------------| 
G|-7-------------------9---------------------| 
D|-------------------------------------------| 


  GTR I 
D|-----------------------|-----------------------|-----------------------|-----------------------| 
A|-----------------------|-----------------------|-----------------------|-----------------------| 
F|----------------11-----|----------------11-----|----------------12-----|----------------12-----| 
C|-------11----------11--|-------11----------11--|-------12----------12--|-------12----------12--| 
G|-9-9-9----9-9-9--------|-9-9-9----9-9-9--------|-8-8-8----8-8-8--------|-8-8-8----8-8-8--------| 
D|-----------------------|-----------------------|-----------------------|-----------------------| 
 | 
 |GTR II 
D|-----------------------|-----------------------|-----------------------|----------------------------| 
A|-----------------------|-----------------------|-----------------------|----------------------------| 
F|-----------------------|-----------------------|-----------------------|----------------------------| 
C|-----------------------|-----------------------|-----------------------|----------------------------| 
G|-4-4-4-4--4-4-4-4—-4-4-|-4-4-4-4--4-4-4-4—-4-4-|-3-3-3-3--3-3-3-3--3-3-|-3-3-3-3--3-3-3-3--3-3--| 
D|-2-2-2-2--2-2-2-2—-2-2-|-2-2-2-2--2-2-2-2--2-2-|-1-1-1-1--1-1-1-1--1-1-|-1-1-1-1--1-1-1-1--1-1----| 

GTR I                                             STRUM---------------------------------------------| 
D|-----------------------|-----------------------|----------------|-------------|-------------------| 
A|-----------------------|-----------------------|----------------|-------------|-------------------| 
F|----------------11-----|----------------11-----|-14--13--14--16-|--9-12-11-8--|---9-12-11-8-9-11--| 
C|-------11----------11--|--------11----------11-|----------------|-------------|-------------------| 
G|-9-9-9----9-9-9--------|-9-9-9----9-9-9--------|-12--11--12--14-|--7-10-9--6--|---7-10-9--6-7-9---| 
D|-----------------------|-----------------------|----------------|0------------|-0-----------------| 
 | 
 |GTR II                                          STRUM---------------------------------------------| 
D|-----------------------|-----------------------|----------------|-------------|-------------------| 
A|-----------------------|-----------------------|----------------|-------------|-------------------| 
F|-----------------------|-----------------------|-14--13--14--16-|--9-12-11-8--|---9-12-11-8-9-11--| 
C|-----------------------|-----------------------|----------------|-------------|-------------------| 
G|-4-4-4-4--4-4-4-4--4-4-|-4-4-4-4--4-4-4-4--4-4-|-12--11--12--14-|--7-10-9--6--|---7-10-9--6-7-9---| 
D|-2-2-2-2--2-2-2-2--2-2-|-2-2-2-2--2-2-2-2—-2-2-|----------------|0------------|-0---------------| 

D|-----------------------------------|-------------------------------|-----------------------------------| 
A|-----------------------------------|-------------------------------|-----------------------------------| 
F|-----------------------------------|-------------------------------|-----------------------------------| 
C|----------9\7/9--------------------|-10\9/10-----------------------|----------9\7/9--------------------| 
G|----------7\5/7--------------------|--8\7/8----------------5-8-7-5-|----------7\5/7--------------------| 
D|-0--0-0-0-------0--0-0-0--0--0-0-0-|---------0--0-0-0--5-6---------|-0--0-0-0-------0--0-0-0--0--0-0-0-| 

D|-----------------------------| 
A|-----------------------------| 
F|10\9/10----------------------| 
C|-8\7/8----------8-7-5-7-5----| 
G|--------------------------8--| 
D|-------0--0-0-0--------------| 

PM-----------------------------|                PM---------------------------------------------| 
D|---------------------------------------------|-----------------------------------------------| 
A|---------------------------------------------|-----------------------------------------------| 
F|---------------------------------4\3-3-3-3-3-|-----------------------------------------------| 
C|---------------------------------------------|---------------------------------9-----10-9----| 
G|-2-2-2--2--2-2-2--2--2-2-2--2---2\1-1-1-1-1--|-2-2-2--2--2-2-2--2--2-2-2--2------7-7------7--| 
D|-0-0-0--0--0-0-0--0--0-0-0--0----------------|-0-0-0--0--0-0-0--0--0-0-0--0------------------| 

PM------------------------------------------------------------------------------------| 
D|---------------------------------------------|--------------------------------------| 
A|---------------------------------------------|--------------------------------------| 
F|---------------------------------4\3-3-3-3-3-|--------------------------------------| 
C|---------------------------------------------|--------------------------------------| 
G|-2-2-2--2--2-2-2--2--2-2-2--2---2\1-1-1-1-1--|-------------------------------5/8----| 
D|-0-0-0--0--0-0-0--0--0-0-0--0----------------|-2-0-2-0-2-0-2-0-3-0-3-0-6-5-3--------| 

  GTR I STRUM---------------------------------------------------------------| 
D|-------------|-----------------------|-------------------|----------------| 
A|-------------|-----------------------|-------------------|----------------| 
F|---9-12-11-8-|---9-12-11-14-16-11-12-|-14-16-14-16-17-16-|-17-16-15-9-8---| 
C|-------------|-----------------------|-------------------|----------------| 
G|---7-10-9--6-|---7-10-9--12-14-9--10-|-12-14-12-14-15-14-|-15-14-13-7-6---| 
D|-0-----------|-0---------------------|-------------------|----------------| 
 | 
 | GTR II 
D|-------------|-----------------------|-------------------|------------------| 
A|-------------|-----------------------|-------------------|------------------| 
F|---9-12-11-8-|---9-12-11--8----------|---9-12-11-8-------|---9-12-11-8------| 
C|-------------|-----------------------|-------------------|------------------| 
G|---7-10-9--6-|---7-10-9---6----------|---7-10-9--6-------|---7-10-9—6-----| 
D|--0----------|-0---------------------|-0-----------------|-0----------------| 

SOLO 
D|----------|-----------------------------------|--------------|------------------------------------| 
A|----------|-----------------------------------|--------------|------------------------------------| 
F|-9--11-12-|-----------------------------------|-7--5---10-9--|-/10-9-7----7-----------------------| 
C|----------|--15-14-12-14-12-10-12-10-9-10-9-7-|--------------|---------10---10-9-7-6/7-9-10-------| 
G|-7~-9~-10~|-----------------------------------|-5~-3~-/8—-7~-|------------------------------7~--| 
D|----------|-----------------------------------|--------------|------------------------------------| 

D|---------------------------------------------------------------------------------------------| 
A|------------------------------------------------------------------------8-10-12-pb13r12b13~--| 
F|-------------------/10-9-10p9-7-9-7-9p7-5-7~-/9-5—4b5r4-4b5r4-2-4-5-/9---------------------| 
C|-9~-6-7-9-10~-9-10---------------------------------------------------------------------------| 
G|---------------------------------------------------------------------------------------------| 
D|---------------------------------------------------------------------------------------------| 

D|-------------------10--------------------17-16~-17~-19~-br20------------------------------------------| 
A|-12h13p12-10-12-13----17h18p17-15-17-18----------------------15b17r15~-/18-17h18p17-15-13-15-17-------| 
F|------------------------------------------------------------------------------------------------16~---| 
C|------------------------------------------------------------------------------------------------------| 
G|------------------------------------------------------------------------------------------------------| 
D|------------------------------------------------------------------------------------------------------| 

D|---------------------------------------------| 
A|-13-15-17------------------------------------| 
F|----------14~-14h16p14-13----13-14b16-10~----| 
C|--------------------------14-----------------| 
G|---------------------------------------------| 
D|---------------------------------------------| 
                                  ^start next riff here (slight overlap over end of solo) 
 GTR I 
D|-----------------------------------------------|-------------------------------------------------------| | 
A|-----------------------------------------------|-------------------------------------------------------| | 
F|---------------------------------------------0-|-------------------------------------------------------| | 
C|-9----10p9----------9-----10p9-------------0---|-9----10p9----------9----10p9----------10----12p10-----| | 
G|-----------h7-----------------h7---------5-----|----------h7-----------------h7--------------------h8--| | 
D|--0-0---------0-0-0--0-0---------0-0-0-6-------|--0-0---------0-0-0--0-0---------0-0-0---0-0-----------| | 
 |                                                                                                         | 
 |GTR II                                                                                                   | 
D|-----------------------------------------------|-------------------------------------------------------| | 
A|-----------------------------------------------|-------------------------------------------------------| | 
F|---------------------------------------------0-|-------------------------------------------------------| | 
C|-6----7p6----------6------7p6--------------0---|-6----7p69----------6-----7p6----------7-----9---------| | 
G|----------h7------------------h7---------5-----|----------h7------------------h7-----------------------| | 
D|--0-0--------0-0-0---0-0---------0-0-0-6-------|--0-0---------0-0-0---0-0--------0-0-0---0-0-----------| | 
                                                                                                           | 
  GTR I                                                                                                    |x2 
D|-----------------------------------------------|-------------------------------------------------------| | 
A|-----------------------------------------------|-------------------------------------------------------| | 
F|---------------------------------------------0-|-------------------------------------------------------| | 
C|-9----10p9----------9-----10p9--------------0--|-9----10p9----------9----10p9----------------------(5)-| | 
G|-----------h7-----------------h7---------5-----|----------h7-----------------h7--------8-7-5-7-5-3—(5)-| | 
D|--0-0---------0-0-0--0-0---------0-0-0-6-------|--0-0---------0-0-0--0-0---------0-0-0-------------(3)-| | 
 |                                                                                    (last time only)^    | 
 |GTR II                                                                                                   | 
D|-----------------------------------------------|-------------------------------------------------------| | 
A|-----------------------------------------------|-------------------------------------------------------| | 
F|---------------------------------------------0-|-------------------------------------------------------| | 
C|-6----7p6----------6-----7p6---------------0---|-6----7p6----------6----7p6------------------------(5)-| | 
G|----------h7-----------------h7----------5-----|----------h7----------------h7---------8-7-5-7-5-3—(5)-| | 
D|--0-0--------0-0-0---0-0---------0-0-0-6-------|--0-0--------0-0-0---0-0--------0-0-0--------------(3)-| | 

  STRUM-------------------------------------------------------------------| 
D|-------------|-----------------------|-------------------|--------------| 
A|-------------|-----------------------|-------------------|--------------| 
F|---9-12-11-8-|---9-12-11-14-16-11-12-|-14-16-14-16-17-16-|-17-19-20-21--| 
C|-------------|-----------------------|-------------------|--------------| 
G|---7-10-9--6-|---7-10-9--12-14-9--10-|-12-14-12-14-15-14-|-15-17-18-19--| 
D|-0-----------|-0---------------------|-------------------|--------------| 
 | 
 | GTR II 
D|-------------|-----------------------|-------------------|------------------| 
A|-------------|-----------------------|-------------------|------------------| 
F|---9-12-11-8-|---9-12-11--8----------|---9-12-11-8-------|---9-12-11-8------| 
C|-------------|-----------------------|-------------------|------------------| 
G|---7-10-9--6-|---7-10-9---6----------|---7-10-9--6-------|---7-10-9—6-----| 
D|--0----------|-0---------------------|-0-----------------|-0----------------| 

GTR I 
D|-------------------------------------------------------------| 
A|-------------------------------------------------------------| 
F|-------------------------------------------------------------| 
C|-------------------------------------------------------------| 
G|-------------------------------------------------------------| 
D|-0-0-0-0--0-0--0-0-0-0--0-0--0-0-0-0--0-0--0-0-0-0--0-0-0-0--| 
 | 
 | GTR II 
D|-------------------------------------------------------------| 
A|-------------------------------------------------------------| 
F|-9---------------------------8-------------------------------| 
C|-------------------------------------------------------------| 
G|-7---------------------------6-------------------------------| 
D|-------------------------------------------------------------| 

GTR I 
D|-------------------------------------------------------------| 
A|-------------------------------------------------------------| 
F|-------------------------------------------------------------| 
C|-------------------------------------------------------------| 
G|-------------------------------------------------------------| 
D|-0-0-0-0--0-0--0-0-0-0--0-0--0-0-0-0--0-0--0-0-0-0--0-0-0-0--| 
 | 
 | GTR II 
D|-------------------------------------------------------------| 
A|-------------------------------------------------------------| 
F|-5---------------------------4-------------------------------| 
C|-------------------------------------------------------------| 
G|-3---------------------------2-------------------------------| 
D|-------------------------------------------------------------| 

 GTR I 
D|-------------------------------------------------------------| 
A|-------------------------------------------------------------| 
F|-------------------------------------------------------------| 
C|-------------------------------------------------------------| 
G|-------------------------------------------------------------| 
D|-8-8-8-8--8-8--8-8-8-8--8-8--8-8-8-8--8-8--8-8-8-8--8-8-8-8--| 
 | 
 | GTR II 
D|-------------------------------------------------------------| 
A|-------------------------------------------------------------| 
F|-9---------------------------11------------12----------------| 
C|-------------------------------------------------------------| 
G|-7---------------------------9-------------10----------------| 
D|-------------------------------------------------------------| 

GTR I 
D|---------------------------------------------------------------------------------| 
A|---------------------------------------------------------------------------------| 
F|---------------------------------------------------------------------------------| 
C|---------------------------------------------------------------------------------| 
G|---------------------------------------------------------------------------------| 
D|-11-11-11-11--11-11--11-11-11-11--11-11--12-12-12-12--12-12--14-14-14-14--14-14--| 
 | 
 | GTR II 
D|---------------------------------------------------------------------------------| 
A|---------------------------------------------------------------------------------| 
F|-11--------------------------------------12------------------14------------------| 
C|---------------------------------------------------------------------------------| 
G|-9---------------------------------------10------------------12------------------| 
D|---------------------------------------------------------------------------------| 

GTR I 
D|-------------------------------------------------------------| 
A|-------------------------------------------------------------| 
F|-------------------------------------------------------------| 
C|-------------------------------------------------------------| 
G|-------------------------------------------------------------| 
D|-0-0-0-0--0-0--0-0-0-0--0-0--0-0-0-0--0-0--0-0-0-0--0-0-0-0--| 
 | 
 | GTR II 
D|-------------------------------------------------------------| 
A|-------------------------------------------------------------| 
F|-9---------------------------8-------------------------------| 
C|-------------------------------------------------------------| 
G|-7---------------------------6-------------------------------| 
D|-------------------------------------------------------------| 

GTR I 
D|-------------------------------------------------------------| 
A|-------------------------------------------------------------| 
F|-------------------------------------------------------------| 
C|-------------------------------------------------------------| 
G|-------------------------------------------------------------| 
D|-0-0-0-0--0-0--0-0-0-0--0-0--0-0-0-0--0-0--0-0-0-0--0-0-0-0--| 
 | 
 | GTR II 
D|-------------------------------------------------------------| 
A|-------------------------------------------------------------| 
F|-5---------------------------4-------------------------------| 
C|-------------------------------------------------------------| 
G|-3---------------------------2-------------------------------| 
D|-------------------------------------------------------------| 

 GTR I 
D|-------------------------------------------------------------|----------------| 
A|-------------------------------------------------------------|----------------| 
F|-------------------------------------------------------------|----------------| 
C|-------------------------------------------------------------|----------------| 
G|-------------------------------------------------------------|--9-9-7--7--2---| 
D|-8-8-8-8--8-8--8-8-8-8--8-8--8-8-8-8--8-8--8-8-8-8--8-8-8-8--|--7-5-3--2--0---| 
 | 
 | GTR II 
D|-------------------------------------------------------------|----------------| 
A|-------------------------------------------------------------|----------------| 
F|-9---------------------------11------------12----------------|--11--12-14-----| 
C|-------------------------------------------------------------|----------------| 
G|-7---------------------------9-------------10----------------|--9---10-12-2---| 
D|-------------------------------------------------------------|------------0---| 


************************************ 

| /    Slide up 
| \    Slide down 
| ~    Vibrato 
| r    Release 
| b    Bend 
| pb   Pre-bend 
| p    Pull-off 
| br   Bend release 
| h    Hammer-on 
| (n)  Ghost note  

************************************ 
  

top 5 | the haunted
top rock'n roll
Outras músicas do artista letras do(a) The Haunted
Top cifras »Top artistas »
Petaxxon Comunicação Online
Cifras.com.br - Melhor e mais completo site de cifras e tablaturas do Brasil
Mais de 1 milhão de acordes de músicas cadastradas desde 2003
As informações contidas no nosso site são colaborações de seus usuários e podem conter erros, sendo assim, não nos responsabilizamos sobre nenhuma destas.
close
menos
mais
close
Cor dos acordes:

Cor da letra:

 

save
close
close
 
redimensionar